geekabit

lightbulb

De Dijk – Hou me vast

published by Maarten Tromp

Dit is de bass tab voor Hou me vast van De Dijk, van het album Nooit genoeg (1991), gespeeld door Hans van der Lubbe. Het nummer staat ook als Hold On Tight van Solomon Burke & De Dijk op het album Hold On Tight (2010).

Muziek

Enable JavaScript to get the fancy player.

Bass tab

Intro

    Em               Bm               Em               Bm               
G  |----------------|----------------|----------------|----------------||
D  |----------------|----------------|----------------|----------------||
A  |----------------|2---------------|----------------|2---------------||
E  |0-----0-3-0-3-5-|------0-5-0-2---|0-----0-3-0-3-5-|------0-3-0-3---||

Couplet

    Em               G                D
G  |----------------|----------------|----------------|---------------- ||
D  |----------------|----------------|----4-----------|----------------*||
A  |----------------|----2-------2---|5-5---5-5-5---2-|5-5-2-2---------*||
E  |0-0-3-0---0-3-0-|3-3---3---3---3-|------------5---|--------5-5-3-3- ||
    Am               C                G                D
G  |----------------|----------------|----------------|----------------|
D  |----------------|----2-------2---|----------------|----------------|
A  |----3-------3---|3-3---3---3---3-|----2-------2---|5-5-2-2---------|
E  |5-5---5---5---5-|----------------|3-3---3---3---3-|--------5-5-3-3-|
    Am               C                G                Bm
G  |----------------|----------------|----------------|----------------||
D  |----------------|----2-------2---|----------------|----------------||
A  |----3-------3---|3-3---3---3---3-|----------------|------7-9-7-9-7-||
E  |5-5---5---5---5-|----------------|3-3-3-3-3-3-3-3/|7-7-7-----------||

Refrein

    Em            D                     Am            C          Bm
G  |----------------|---------------- ||----------------|----------------||
D  |----------------|----------------*||----------------|----------------||
A  |------------2-5-|--5-------------*||--------------3-|--3-------------||
E  |0---0---3-5-----|------0-2-0-2-3- ||5-5-5-5-5-3-5---|------0-2-0-2-3-||
                                play 3x