Wintergatan – Marble Machine

published: by Maarten Tromp.

This is the bass tab for the Marble Machine song by Wintergatan as played by Martin Molin on the Marble Machine.

Video

Bass tab

The Marble Machine bass is tuned to E / G / e / g, but this bass tab is adapted for standard E / A / D / G tuning.

Part 1

     Em                                G
G || --------9-----9-|---------------7|----------------|-7--------------|
D ||*----------------|-------------79-|--5-----5-------|-----5----------|
A ||*----7-----7-----|--7---------a---|----------------|----------------|
E || 0---------------|------0---------|----3-----3-----|---------3--3235|
    a=10
                                      __________________________________
    Bm                               | 1. Cm           D                |
G  |--------4-------|4-----4---------|--------5\------|----------7---9- ||
D  |----------------|------------0-2-|----------------|----------------*||
A  |2---2-----2---2-|--2-------2-----|3\--------------|5---------------*||
E  |----------------|----------------|----------------|---------------- ||
    _________________________________
   | 2. Am           Bm              |
G  |--------2-------|--------4-------||
D  |----------------|----------------||
A  |0-----------0---|2-----------2---||
E  |----------------|----------------||

Part 2

Same melody as part1 but with different chords and bass.

     Cmaj                              D
G || --------5-------|5-----5---------|--7-----7-------|-7---5---4------|
D ||*----------------|------------5-7-|----------------|----------------|
A ||*3---3-----3---3-|----3-----------|----5-----5-----|----------------|
E || ----------------|----------------|----------------|----------------|
    Em                                 Am              Bm
G  |--------9-------|--9-------------|----------------|----------4----- ||
D  |----------------|--------------5-|--------7-------|----------------*||
A  |----7-----7-----|------7-----7---|----------------|2-------------2-*||
E  |0-------------0-|----------0-----|5---------5-----|---------------- ||