Urban Dance Squad – Good Grief!

published: by Maarten Tromp.

This is the bass tab for Good Grief! by Urban Dance Squad, from the album Persona Non Grata (1994), played by Silly Sil (Silvano Matadin).

Music

Bass tab

Intro

G  |----------------|----------------|----------------|----------------||
D  |----------------|----------------|----------------|----------------||
A  |----------------|----------------|----------------|----------------||
E  |2-2-0-2-----2-2-|0-2-----2-2-0-2-|5-2-0--2----2-2-|0-2-------------||

Verse

G  |----------------|----------------|----------------|----------------||
D  |----------------|--3-------------|----------------|----------------||
A  |5-3-5-3-5---5-3-|5---5-3-5-3-----|----------------|----------------||
E  |----------------|------------5---|1---1-----------|3---3-----------||

Bridge

This bridge is found on older versions of the song, but seems to have been abandoned on more recent versions.

G  |----------------||
D  |----------------||
A  |--------5--3----||
E  |5-5-3-5-------3-||