Sting – Shape of my Heart

published: by Maarten Tromp.

This is the bass tab for Shape of my Heart by Sting, from the album Ten Summoner's Tales (1993).

Music

Bass tab

Verse / chorus

G  |--------|--------|--------|--------|
D  |4---2---|--------|4---2---|--------|
A  |--------|2-----4-|--------|2-----4-|
E  |--------|--------|--------|--------|
G  |--------|--------|--------|--------||
D  |--------|--------|--------|--------||
A  |5-------|----4---|5-------|--------||
E  |--------|5-------|----4---|2-------||

Modulation

From last measure verse
G  |--------|--------|--------|
D  |4-4-2-2-|--------|--------|
A  |--------|5-5-----|--------|
E  |--------|----4---|--------|
G  |--------|--------|--------|--------|
D  |--------|--------|--------|--------|
A  |4---2---|--------|4---2---|--------|
E  |--------|2-----4-|--------|2-----4-|
G  |--------|--------|--------|--------|
D  |--------|--------|--------|--------|
A  |--------|7-------|----6---|4-------|
E  |5-------|----4---|5-------|--------|
G  |--------|--------||
D  |--------|--------||
A  |--------|--------||
E  |5---4---|5-------||