Stevie Wonder – I Wish

published by Maarten Tromp

Summary

This is the bass tab for I Wish by Stevie Wonder, from the album Songs in the Key of Life (1976), played by Nathan Watts.

Music

Bass tab

Verse

    E♭m7     A♭7     E♭m7     A♭7
G  |----------------|------3---------||
D  |----------------|--4-6---6-------||
A  |6---------3-4-5-|6-4-------3-4-5-||
E  |--2-4-6-4-------|----------------||

Chorus

    B♭7     C7       Fm7     A♭m7       Fm7    B♭7
                     _________________  ________________
                    | 1.              || 2.
G  |----------------|---------------- ||----------------||
D  |----------------|------5-6-5-6-7-*||--5-6-7-8-------||
A  |----5-----5-6-7-|8-7-8-----------*||8--------x------||
E  |6-8---6-8-------|---------------- ||----------6-6-6-||

Bridge

    E♭m7
G  |----------------|---------65-6-5-|----------------|-65-------------||
D  |----------------|----------------|----------------|----6-4-764-----||
A  |6646------------|----------------|3456------------|------------6-4-||
E  |----------------|-22-4-6---------|----------------|----------------||