Robert Palmer – Best of Both Worlds

published by Maarten Tromp

Summary

This is the bass tab for Best of Both Worlds by Robert Palmer from the album Double Fun (1978), played by Bob Babbitt.

Music

Bass tab

Verse

    B                        A          D                E
G  |----------------|---------------- ||----------------|----------------||
D  |4---------------|----------------*||4--4------------|2---------------||
A  |----2---2-------|--------0-2-0-2-*||--------5--5--5-|--2-2-2-------2-||
E  |----------------|---------------- ||----------------|----------------||

Chorus

    B                                 C♯               F♯
G  |--------4-------|--------4-------|----------------|----------------||
D  |----------------|----------------|------------2-3-|4---------------||
A  |2-2-2-------2-2-|0-2-2-------2-3-|4-4---4-4-4-----|--4-------------||
E  |----------------|----------------|----------------|----2-2---------||

Bridge

    E                                 B
G  |----------------|----------------|------------2-4-|------------2-4-|
D  |----------------|----------------|--------4--4----|--------4--4----|
A  |------------2-4-|------------2-4-|2-2---2---------|2-2---2---------|
E  |0-0---0-4-4-----|0-0---0-4-4-----|----------------|----------------|
    E                                 F♯               E
G  |----------------|----------------|----------------|----------------||
D  |----------------|----------------|--------4-----4-|2---------------||
A  |------------2-4-|------------2-4-|------4-----4---|------2---------||
E  |0-0---0-4-4-----|0-0---0-4-4-----|2-2-------------|--------0-------||