Robben Ford & The Blue Line – Misdirected Blues

published by Maarten Tromp

Summary

This is the bass tab for Misdirected Blues by Robben Ford, from the album Mystic Mile (1993), played by Charles Roscoe Beck.

Music

Bass tab

Verse

This is the main theme but a lot of improvisation is going on.

    C
                                                       _________________
                                                      | 1.              |
G  |----------------|----------------|----------------|---------------- ||
D  |----------------|----------------|----------------|----------------*||
A  |3-----------0---|3---0-------0---|3-----------0---|1---0--------12-*||
E  |----0---3-------|--------3-------|----0---3-------|--------3--x3--- ||
    ________________
   | 2.
G  |----------------|
D  |----------------|
A  |1---0-----------|
E  |--------3---0---|
    F                Em               C
G  |----------------|----------------|----------------|----------------|
D  |------------3---|1---------------|----------------|----------------|
A  |----0---3-------|--------1---2---|3-----------0---|3---1---0-------|
E  |1---------------|----3-----------|----0---3-------|------------4---|
    G                                                  C
G  |----------------|----------------|----------------|----------------|
D  |----2---0---2---|----------------|----------------|----------------|
A  |----------------|----------------|----0---1---2---|3---1---0-------|
E  |3---------------|3---0---1---2---|3---------------|------------4---|
    G
G  |----------------||
D  |----------------||
A  |----------------||
E  |3---1---0---3---||