Raymond van het Groenewoud – Je Veux de l'Amour

published by Maarten Tromp

Summary

Dit is de bass tab voor Je Veux de l'Amour van Raymond van het Groenewoud, van het album Leven en Liefdes (1980), gespeeld door Mich Verbelen.

Muziek

Bass tab

Couplet

    C            F            D            G
G  |----------5-|------------|------7-----|------------|
D  |------------|3-----3---2-|------------|5-----5-4-3-|
A  |3-----------|------------|5-----------|------------|
E  |------------|------------|------------|------------|
    E            Am           D            G7
                              __________________________
                             | 1.                       |
G  |------------|------------|------7-----|------------ ||
D  |2-----------|------------|------------|5-----------*||
A  |------------|--------2-3-|5-----------|----------2-*||
E  |------0-----|5-----5-----|------------|------3-5--- ||
    D     Fm     G7
    ____________
   | 2.
G  |------------|------------||
D  |------3-----|5-----5-----||
A  |5-----------|------------||
E  |------------|-----3------||

Alle volgende coupletten alleen tweede uitgang.

Refrein

    C            Em           F            G
G  |------5-----|------------|------------|------------||
D  |---------xx1|2-----2-0-2-|3---3-3---3-|5-----------||
A  |3-----------|------------|-----3------|----5-----2-||
E  |------------|------------|------------|------3-5---||