Rancid – Time Bomb

published by Maarten Tromp

Summary

This is the bass tab for Time Bomb by Rancid, from the album ...And Out Come The Wolves (1995), played by Matt Freeman.

Music

Enable JavaScript to get the fancy player.

Play (space) Pause (space)
?
IVCVCVCBSSVCCO

Bass tab

Intro

    Bm               E                Bm               E 
G  |----------------|----------------|----------------|----------------||
D  |----------------|----------------|----------------|------2-2---2---||
A  |2-----2-----2---|----------------|2-----2-----2---|----------------||
E  |----------------|------0-0---0---|----------------|----------------||

Verse

    Bm               E                Bm               E
G  |----------------|----------------|----------------|---------------- ||
D  |--------0---4---|2---4---2-0---0-|--------0-------|--------------0-*||
A  |2---4-----------|------------4---|2---4-------4---|------------0---*||
E  |----------------|----------------|----------------|0---2---4------- ||

Chorus

    A                D                E                D
G  |----------------|----------------|----------------|---------------- ||
D  |----------------|----------------|----5-5-4-4-----|----------------*||
A  |----4-4-7-7-4-7-|5-5-4-4-5-5-6-6-|7-7---------7-7-|5-5-4-4-5-4-5-7-*||
E  |5-5-------------|----------------|----------------|---------------- ||

Bridge

    E
G  |----------------|----------------||
D  |----------------|----------------||
A  |----------------|----------------||
E  |0-0-0-0-0-0-0-0-|0-0-0-0-0-0-0-0-||

Solo

    A                D                E                D
G  |----------------|----------------|----------------|----------------|
D  |----------------|----------------|----------------|--------4-------|
A  |--------4---7---|x-5-4---5---6---|7--7--7-5--5--5-|4--4--7---7-4-7-|
E  |5---x-5---------|----------------|----------------|----------------|
    A                D                E                D
G  |----------------|----------------|----------------|----------------||
D  |----------------|----------------|----------------|----------------||
A  |--------4---7---|5---4---5---6---|7---------------|5---------------||
E  |5---x-5---------|----------------|----------------|----------------||

Outro

    E                                 A
G  |----------------|----------------|----------------|----------------|
D  |----------------|----------------|----------------|----------------|
A  |----------------|----------------|0---------------|0---------------|
E  |0-0-0-0-0-0-0-0-|0-0-0-0-0-0-0-0-|----------------|----------------|
G  |----------------||
D  |----------------||
A  |0---------------||
E  |----------------||