Rancid – Old Friend

published by Maarten Tromp

Summary

This is the bass tab for Old Friend by Rancid, from the album ...And Out Come The Wolves (1995), played by Matt Freeman.

Music

Enable JavaScript to get the fancy player.

Play (space) Pause (space)
?
 IICVV2CVCII SVCSO 

Bass tab

Intro

    D                Bm               D                Bm
G  |--4-2-----------|----------------|--4-2-----------|----------------|
D  |--------4---2---|0---0-2-4-2-0---|--------4---2---|0---2-2-2-2-2-4-|
A  |2---------------|----------------|2---------------|----------------|
E  |----------------|----------------|----------------|----------------|
    D                Bm               A                E
G  |--4-2-----------|----------------|2---0-----------|---------------- ||
D  |--------4---2---|0---0-2-4-2-0---|--------4---0---|2---0-----------*||
A  |2---------------|----------------|----------------|--------4---3---*||
E  |----------------|----------------|----------------|---------------- ||

Chorus

    A                E                F♯m              D
G  |----------------|----------------|----------------|---------------- ||
D  |----------------|----------------|----------------|----------------*||
A  |0---3---2---0---|------------4---|----0---2---4---|5---4---2---0---*||
E  |----------------|0---2---4-------|2---------------|---------------- ||

Verse

    A       E        F♯m     D
G  |----------------|---------------- ||
D  |--------2-2-2-2-|4-4-4-4-0-0-0-2-*||
A  |0-0-0-0---------|----------------*||
E  |----------------|---------------- ||
                              play 4x   

2nd Verse

    A       E        F♯m     D
G  |----------------|---------------- ||
D  |----------------|--------0-0-0-0-*||
A  |0-0-0-0---------|----------------*||
E  |--------0-0-0-0-|2-2-2-2--------- ||
                              play 4x

Outtro

    A       E        F♯m     D        A
G  |----------------|----------------|----------------||
D  |-------2--------|4-------0---2---|----------------||
A  |0---------------|----------------|0---------------||
E  |----------------|----------------|----------------||