Rancid – Journey to the End of the East Bay

published by Maarten Tromp

Summary

This is the bass tab for Journey to the End of the East Bay by Rancid, from the album ...And Out Come The Wolves (1995), played by Matt Freeman.

Music

Enable JavaScript to get the fancy player.

Play (space) Pause (space)
?
IVCVCIVCV 

Bass tab

Intro

    C                G                Am               F
G  |----------------|----4---4-------|--6---9---6-----|----------------|
D  |--2---3---4---5-|--5---5---5----/|7-----------7---|3---------------|
A  |3---------------|----------------|----------------|------0---1---2-|
E  |----------------|----------------|----------------|--1-------------|
    C                G                F________________C________________
                                     | 1.                               |
G  |----------------|----------------|----------------|---------------- ||
D  |--2---3---4---5-|--5-5-5-5-5-5-5-|3---------------|---2-0----------*||
A  |3---------------|----------------|------0---1---3-|-3-----2-0------*||
E  |----------------|----------------|--1-------------|-----------3--0- ||
    F________________________________  F________________C_______________
   | 2.                              || 3.                              |
G  |----------------|----------------||----------------|---------0------||
D  |3-3-3-3-1-1-1-1-|0-0-0-0---------||3---------------|---2-0-2---2-0--||
A  |----------------|--------3-0-1-2-||------0---1---3-|-3--------------||
E  |----------------|----------------||--1-------------|----------------||
    F________________________________ 
   | 4.                              ||
G  |----------------|----------------||
D  |3-3-3-3-1-1-1-1-|0-0-0-0---------||
A  |----------------|--------3-3-0-1-||
E  |----------------|----------------||

Verse

    C                G                Am               F
G  |----------------|----------------|----------------|----------------||
D  |----------------|----------------|----------------|----------------||
A  |3-3-3-3-3-3-3-3-|----------------|----------------|----------------||
E  |----------------|3-3-3-3-3-3-3-3-|5-5-5-5-5-5-5-5-|1-1-1-1-1-1-1-1-||

Chorus

    C       G        Am      F
G  |----------------|----------------||
D  |--------5-------|7-------3---5---||
A  |3---------------|----------------||
E  |----------------|----------------||