Nocturnal – Me vs. Me

published: by Maarten Tromp.

This is the bass tab for Me vs. Me by Nocturnal from the album Live in Parnassos (2000), played by Maarten Tromp.

Music

Enable JavaScript to get the extended player.

album bass
album bass

Bass tab

1st Verse

    Dm                                C                B♭
G  |--6-7-----------|--6-7-----------|--4-5-----------|--4-5----------- ||
D  |--------7-------|--------7-------|--------5-------|--------5-------*||
A  |5---------------|5---------------|3---------------|3---------------*||
E  |----------------|----------------|----------------|---------------- ||
        h                h                h                h
    Dm               C                B♭               C
G  |--6-7-----------|--4-5-----------|--2-3-----------|--4-5-----------||
D  |--------7-------|--------5-------|--------3-------|--------5-------||
A  |5---------------|3---------------|1---------------|3---------------||
E  |----------------|----------------|----------------|----------------||
        h                h                h                h

Chorus

    Dm                                Gm               B
G  |----------------|----------------|----------------|---------------- ||
D  |----------------|------------3-4-|5---5-5-5---5---|----------------*||
A  |5---5-5-3-5---5-|--5-5-5-3-5-----|--------------2-|--0-2-2---0-2-2-*||
E  |----------------|----------------|----------------|---------------- ||
    C
G  |----5-----5-----|5-----5-----5---||
D  |----------------|----------------||
A  |3-3---3-3---3-3-|--3-3---3-3-----||
E  |----------------|----------------||

2nd Verse

    Dm                                C                B♭
G  |----------------|----------------|----------------|---------------- ||
D  |----------------|----------------|----------------|------------3---*||
A  |5-5-5-5-5-5-5-5-|5-5-5-5-5-5-5-5-|3-3-3-3-3-3-3-3-|----------------*||
E  |----------------|----------------|----------------|3-3-3-3-3-5----- ||
                                                                 h
    Dm                                C                B♭
G  |----------------|----------------|----------------|----------------||
D  |----------------|----------------|----------------|----------------||
A  |5-5-5-5-5-5-5-5-|5-5-5-5-5-5-5-5-|3-3-3-3-3-3-3-3-|3---1---1---1---||
E  |----------------|----------------|----------------|----------------||

Bridge

    Dm                                C                B♭
G  |----5-----4-----|3-----2-----020-|----------------|----------------||
D  |0-0---0-0---0-0-|--0-0-----0-----|----4-4-5-------|-2--------0-----||
A  |----------------|----------------|5--------------3|----3--2-----2--||
E  |----------------|----------------|----------------|----------------||
                                  hp