Nocturnal – If You Love Music More Than Life

published: by Maarten Tromp.

This is the bass tab for If You Love Music More Than Life by Nocturnal (2000), played by Maarten Tromp.

Music

Bass tab

Intro

    Fm
G  |----------------|----------------|------------6---|----------------||
D  |----------------|------------4---|----------------|----------------||
A  |------------4---|----------------|----------------|----------------||
E  |2---------------|2---------------|2---------------|2---------2-2---||

Verse

    Fm      D♭m      Fm      D♭m      Bm      Em       Fm      D♭m
G  |----------------|----4-5-6---6-5-|4---------------|----------------|
D  |------------2-3-|4---------------|----0-1-2---2-3-|4---------------|
A  |----2-3-4-------|----------------|----------------|----4-3-2-------|
E  |2---------------|----------------|----------------|------------5--\|
    Fm      D♭m      Fm      D♭m      Bm      Em       Fm      D♭m
G  |----------------|----4-5-6-------|----2-3-4---4-5-|6---------------|
D  |------------2-3-|4-----------0-1-|2---------------|----------------|
A  |----2-3-4-------|----------------|----------------|----------------|
E  |2---------------|----------------|----------------|----------------|
    Em      D
G  |----------------||
D  |2---------------||
A  |------5---------||
E  |----------------||

Chorus

    Fm     Em        Bm          A      Dm      D♭m
                     _________________  ________________
                    | 1-3             || 4.
G  |---------4------|---------------- ||---7-----6------||
D  |---4-x2-----2---|----------------*||----------------||
A  |--------------4-|2-2-2-2x2-------*||5----x4----x454-||
E  |2---------------|-----------x5--\ ||---------------5\|
                                                     hph