Nocturnal – Closer than Friends

published by Maarten Tromp

Summary

This is the bass tab for Closer than Friends by Nocturnal, played by Maarten Tromp.

Music

Enable JavaScript to get the fancy player.

Play (space) Pause (space)
?
 IVCIVC 

Bass tab

Intro

    G
G  |----------------|----------------||
D  |----------------|----------------||
A  |---5-----5------|---5------------||
E  |3-----3-----3---|3-----3---------||

Verse

    G                                                  A
G  |----------------|----------------|----------------|----------------|
D  |----------------|----------------|----------------|---2-----2------|
A  |---5-----5------|---5-----5------|------2--3--2---|--------------2-|
E  |3-----3-----3---|3-----3-----3---|3--5----------3-|5-----5-----5---|
    C                G                                   G
                     __________________________________  _________________
                    | 1.                               || 2.
G  |----------------|----------------|---------------- ||----------------||
D  |---2-----2--454-|----------------|----------------*||----------------||
A  |3-----3---------|---5-----5------|---5-----5------*||---5-----5------||
E  |----------------|3-----3-----3---|3-----3-----3--- ||3-----3-----3-2-||
                 hp

Chorus

    E                G                  G                C
                     _________________  ________________
                    | 1-2             || 3.
G  |----------2-----|---------------- ||----------------|----------------|
D  |---2----0---454-|----------------*||----------------|---5-----5------|
A  |------2---------|---5-----5------*||---5-----5----5-|3-----3-----3-4-|
E  |0---------------|3-----3-----3-2- ||3-----3-----3---|----------------|
                 hp
    D       C
G  |---7---------x--||
D  |-----------5--x-||
A  |5-----5-3------x||
E  |----------------||