Nina Simone – My Baby Just Cares for Me

published by Maarten Tromp

This is the bass tab for the jazz standard My Baby Just Cares for Me, version by Nina Simone, from her debut album Little Girl Blue (1957), played by Jimmy Bond on double bass.

Another good bass cover and transcription by Benny the Bassman can be found on Youtube.

Music

Enable JavaScript to get the fancy player.

Bass tab

1st verse

    A                D           E      Bm               Em
G  |2-2-1-----------|---------------- ||--------4-------|----------------|
D  |--------4---2---|0-----------2---*||----4-------4---|2---2-------2---|
A  |----------------|----4---2-------*||2---------------|--------2-----2-|
E  |----------------|---------------- ||----------------|----------------|
                              play 3x
    C♯               C♯7              F♯m
G  |----------------|----------------|----2-----------|----------------|
D  |----------------|--------2---3---|4---------------|----4---c-------|
A  |4---4-------2---|4---4-----------|--------0---2---|4-----------4---|
E  |--------4-------|----------------|----------------|----------------|
    a=10, b=11, c=12, n=natural harmonic                       n
    B                B7               E
G  |--------2---3---|4-----------4---|----------------|----------------||
D  |----4-----------|----4--------43-|2---------------|----------------||
A  |2---------------|--------2-------|----------------|----------------||
E  |----------------|----------------|----------------|----------------||

2nd verse

    A                D           E      D7
G  |2-2-1-----------|---------------- ||----2-----------|----------------|
D  |--------4---2---|0-----------2---*||0-------4-------|0---2---4-------|
A  |----------------|----4---2-------*||------------0---|------------0---|
E  |----------------|---------------- ||----------------|----------------|
                              play 3x
                     G♯7              A7      G7       F♯7
G  |----2-----------|--------4---1---|2---2---0---0---|--------------23|
D  |0-------4-------|----1-----------|--------------23|4-----------4---|
A  |------------0---|----------------|----------------|----4-----------|
E  |----------------|4---------------|----------------|--------2-------|
    Bm7              E7               A       F♯m7     Bm7     E7
G  |4-4-2---1-------|--------------1-|2-2-1-----------|----------------||
D  |------------4---|2---0-----------|--------4---2---|0-----------2---||
A  |----------------|--------4---2---|----------------|----4---2-------||
E  |----------------|----------------|----------------|----------------||

1st solo

    A                D           E
G  |2-2-1-1---------|---------------- ||
D  |--------4-4-2-2-|0-0---------2---*||
A  |----------------|----4-4-2-------*||
E  |----------------|---------------- ||
    A                D           E    Bm               Em
G  |2-2-1-1---------|--------------23|4---------------|----------------|
D  |--------4-4-2-2-|0-0-------------|----0---4-------|2---------------|
A  |----------------|----4-4-2-------|------------2---|----2-------2--3|
E  |----------------|----------------|----------------|--------0-------|
    C♯               C♯7              F♯m
G  |----------------|----------------|----------------|----2---------23|
D  |----------------|--------2---3---|4---------------|4-------4---4---|
A  |4---4-------3---|4---4-----------|----0---2---4---|----------------|
E  |--------4-------|----------------|----------------|----------------|
    B                B7               E
G  |4-4-------------|--------4-------|----------------|----------------||
D  |----4-----------|------------3---|2---------------|----------------||
A  |--------4---3---|2---------------|----------------|----------------||
E  |----------------|----2-----------|----------------|----------------||

2nd solo

    A                D           E      D7
G  |2-2-1-1---------|---------------- ||----2-----------|----------------|
D  |--------4---2---|0-----------2---*||0-------4-------|0---------------|
A  |----------------|----4---2-------*||------------0---|----0---2---4---|
E  |----------------|---------------- ||----------------|----------------|
                              play 3x
                     G♯7              A7      G7       F♯7
G  |----------------|--------1-------|----------------|--------------23|
D  |0---2---4---0---|----------------|----------------|--------4-------|
A  |----------------|----------------|0---0-----------|----4-----------|
E  |----------------|4---4-------4---|--------3---3---|2---------------|
    Bm7              E7               A       F♯m7     Bm7     E7
G  |4-4-2---1-------|----------------|----------------|--------------1-||
D  |------------4---|2---0-----------|----------------|----4---2---2---||
A  |----------------|--------4---2---|0-----------4---|2---------------||
E  |----------------|----------------|----4---2-------|----------------||

3rd verse

    A                D           E      Bm               B7
G  |2-2-1-----------|---------------- ||4---7-----------|----------------|
D  |--------4---2---|0-----------2---*||------------4---|2---------------|
A  |----------------|----4---2-------*||--------2-------|----2-------2---|
E  |----------------|---------------- ||----------------|--------0-------|
                              play 3x
    C♯               C♯7              F♯m
G  |----------------|----------------|----------------|----------------|
D  |----------------|--------2---3---|4---------------|4-------c-------|
A  |4---4-------2---|4---4-----------|----0---2---4---|----4-------4---|
E  |--------4-------|----------------|----------------|----------------|
    a=10, b=11, c=12, n=natural harmonic                       n
    B                B7               E
G  |--------2---3---|4---------------|----------------|----------------||
D  |----4-----------|----4-------4---|2---------------|----------------||
A  |2---------------|--------2-------|----------------|----------------||
E  |----------------|----------------|----------------|----------------||

4th verse

    A                D           E      D7
G  |2-2-1-----------|---------------- ||----------------|----2-----------|
D  |--------4---2---|0-----------2---*||0---2---4-------|0-------4-------|
A  |----------------|----4---2-------*||------------0---|------------0---|
E  |----------------|---------------- ||----------------|----------------|
                              play 3x
                     G♯7              A7      G7       F♯7
G  |----------------|1---1-------1---|2---2---0-------|----3-----------|
D  |0---2---4-------|--------1-------|--------------23|4-------4-------|
A  |------------0---|----------------|----------------|------------4---|
E  |----------------|----------------|----------------|----------------|
    Bm7              E7               C♯m7            F♯7
G  |--------4-------|----------------|----------------|--------2---3---|
D  |----4-------4---|2---2---0---0---|--------2---3---|4---4-----------|
A  |2---------------|----------------|4---4-----------|----------------|
E  |----------------|----------------|----------------|----------------|
    Bm7              E7               A
G  |4---2---1-------|----------------|--2-1-----------|------2---------||
D  |------------4---|2---0-----------|------4-2-0-----|----2-----------||
A  |----------------|--------4---2---|------------4-2-|0-4-------------||
E  |----------------|----------------|----------------|----------------||