Michael Jackson – Billie Jean

published: by Maarten Tromp.

This is the bass tab for Billie Jean by Michael Jackson, from the album Thriller (1982), played by Louis Johnson.

Music

Bass tab

Verse

G |----------------|
D |----------------|
A |9---7-9-7-------|
E |--9-------9-7-9-|
                    4x
G |----------------|----------------||
D |9---7-9-------7-|9---7-9---7-----||
A |--9-------7-9---|--9---------9-7-||
E |----------------|----------------||

Chorus

G |----------------|----------------|
D |--------------2-|4---------------|
A |5-----5-5-------|--------------4-|
E |----------------|------2-2-------|
                                     3x
G |----------------|----------------||
D |----------------|----------------||
A |5-----5-5---5-4-|4-4-4-4-4-4-4---||
E |----------------|----------------||