Lamb – Softly

published by Maarten Tromp

This is the bass tab for Softly by Lamb from the album Fear of Fours (1999), played by Jon Thorne on double bass.

This song is played in 6/8 time signature. Tuning is a = 432 Hz.

Music

Bass tab

Intro

    Cm                                       2/8
G  |5--5--3---3-|5--5--3---3- ||------------|----||
D  |-----5--5---|-----5--5--5*||------------|----||
A  |------------|------------*||------------|----||
E  |------------|------------ ||3-----------|----||

Verse

    Cm                        D♯           A♯
G  |------------|------------|------------|------------||
D  |------------|------------|3--3--------|---------1--||
A  |3--3--------|3--3--------|------------|---1--------||
E  |------------|------------|------------|3-----3-----||

Chorus

    Cm           D♯           A♯           Cm
G  |--5-----5---|--8-----8---|------------|---4--------||
D  |------------|------------|--8-----8---|------5-----||
A  |3----x3---3-|6----x6---0-|------------|---------6--||
E  |------------|------------|6----x6---6-|7-----------||