Klein Orkest – Laat mij maar alleen

published by Maarten Tromp

Summary

Dit is de bass tab voor Laat mij maar alleen van het Klein Orkest, van hun debutalbum Het leed versierd (1982), gespeeld door Chris Prins.

Muziek

Bass tab

Couplet

    Am               G                  D
G  |----------------|---------------- ||----------------|----------------|
D  |--------2-------|----------------*||--------4-------|--7-5-4---------|
A  |----3-------3---|----2---5---2---*||5---5-------5---|--------7-5-4---|
E  |5---------------|3--------------- ||----------------|--------------7-|

Laatste maat voor refrein:

    B
G  |--------5---4---||
D  |----4-----------||
A  |6---------------||
E  |----------------||

Refrein

    E                D                  E                D
G  |----------------|---------------- ||----------------|---------------- ||
D  |----------------|----------------*||----------------|----------------*||
A  |7-----------7---|5-----------5/--*||7-------7-------|5-------5-------*||
E  |----3---7-------|----2---5------- ||----7-------7---|----5-------5--- ||
    A
G  |--------------5-|6---------------||
D  |------------7---|---7--5---------||
A  |----7-5---------|---------7--5---||
E  |5-------5-------|----------------||