geekabit

lightbulb

Kashmir – Mom in Love, Daddy in Space

article by Maarten Tromp, published .

This is the bass tab for Mom in Love, Daddy in Space by Kashmir, from the album The Good Life (1999), played by Mads Tunebjerg on 5-string bass.

Music

Enable JavaScript to get the fancy player.

Bass tab

Intro

    Am       B        E7       C        F        D        G        E7
G  |--------|--------|--------|--------|--------|--------|--------|--------||
D  |--------|--------|--------|--------|--------|--------|--------|--------||
A  |--------|--------|--------|--------|--------|--------|7-7-----|7-------||
E  |--------|--------|--------|--------|--------|--------|--------|--------||
B  |--------|--------|--------|--------|--------|--------|--------|--------||

1st Verse

    Am       B        E7       C        F        D        G        E7
G  |--------|--------|--------|--------|--------|--------|--------|--------|
D  |--------|--------|--------|--------|--------|--------|--------|--------|
A  |7-------|--------|--------|--------|3-------|--------|--------|--7-----|
E  |--5-----|--------|--------|--------|--1-----|--------|--------|4-------|
B  |--------|--------|--------|--------|--------|--------|--------|--------|
    Am       B        E7       C        F        D        G        E7
G  |--------|--------|--------|--------|--------|--------|--------|--------|
D  |--------|--------|--------|--------|--------|--------|--------|--------|
A  |7-------|--------|5-------|--------|3-------|--------|5-------|--7-----|
E  |--5-----|--------|--------|--------|--1-----|--------|--3-----|4-------|
B  |--------|--------|--5-----|--------|--------|--------|--------|--------|
    Am       B        E7       C        F        D        E7
G  |--------|--------|--------|--------|--------|--------|--------|--------||
D  |--------|--------|--------|--------|--------|--------|--------|--------||
A  |7-------|--------|5-------|--------|3-------|--------|7-------|7-------||
E  |--5-----|--------|--------|--------|--1-----|--------|--------|--------||
B  |--------|--------|--5-----|--------|--------|--------|--------|--------||

Chorus

    A                Em               D                A       E
                                                       _________________
                                                      | 1.              |
G  |----------------|----------------|----------------|---------------- ||
D  |----------------|----------------|----------------|--------2-2-2-2-*||
A  |----------------|----------------|----------------|----------------*||
E  |5-5-5-5-5-5-5-5-|----------------|----------------|5-5-5-5--------- ||
B  |----------------|5-5-5-5-5-5-5-5-|3-3-3-3-3-3-3-3-|---------------- ||
    F♯m     E        F                        G
    ________________
   | 2.
G  |----------------|----------------|----------------||
D  |----------------|----------------|----------------||
A  |----------------|----------------|----------------||
E  |2-2-2-2---------|1-1-1-1-1-1-1-1-|1-1-1-1-3-3-----||
B  |--------5-5-5-5-|----------------|----------------||

2nd Verse

    Am               B                E7               C
G  |----------------|----------------|----------------|----------------|
D  |----------------|----------------|----------------|----------------|
A  |7---------------|6---------------|5-5-------------|3---------------|
E  |----5-----------|----7-----------|----------------|----5-----------|
B  |----------------|----------------|----5-5---------|----------------|
    F                D                G                E7
                     ___________________________________________________
                    | 1.                                                |
G  |----------------|----------------|----------------|---------------- ||
D  |----------------|----------------|----------------|----2-2---------*||
A  |3-3-------------|5---------------|5-5-------------|----------------*||
E  |----1-1---------|----------------|----3-3---------|4-4------------- ||
B  |----------------|----3-----------|----------------|---------------- ||
    F                G                E7
    ________________
   | 2.
G  |----------------|----------------|----------------||
D  |----------------|----------------|----------------||
A  |5---------------|7---------------|----------------||
E  |----------------|----------------|----------------||
B  |----3-----------|----------------|5---------------||

2nd Chorus ending

    F                        G        A
                                                       _________________
                                                      | 1.              |
G  |----------------|----------------|----------------|---------------- ||
D  |----------------|----------------|----------------|----------------*||
A  |----------------|----------------|----------------|----------------*||
E  |1-1-1-1-1-1-1-1-|1-1-1-1-3-3-----|5---------------|5---4---3------- ||
B  |----------------|----------------|----------------|---------------- ||
                      F                        G
     ________________
    | 2.
 G  |----------------|----------------|----------------||
 D  |7---6---5-------|----------------|----------------||
 A  |----------------|----------------|----------------||
 E  |----------------|1-1-1-1-1-1-1-1-|1-1-1-1-3-3-----||
 B  |----------------|----------------|----------------||

3rd Chorus ending

    D                        E        F♯m              A
G  |----------------|----------------|----------------|---------------- ||
D  |----------------|----------------|----------------|----------------*||
A  |5-5-5-5-5-5-5-5-|5-5-5-5---------|----------------|----------------*||
E  |----------------|----------------|2-2-2-2-2-2-2-2-|5-5-5-5-5-5-5-5- ||
B  |----------------|--------5-5-5-5-|----------------|---------------- ||
    D                        E
G  |----------------|----------------||
D  |----------------|----------------||
A  |----------------|----------------||
E  |----------------|----------------||
B  |3-3-3-3-3-3-3-3-|3-3-3-3-5-5-----||