Kashmir – Mom in Love, Daddy in Space

published: by Maarten Tromp.

This is the bass tab for Mom in Love, Daddy in Space by Kashmir, from the album The Good Life (1999), played by Mads Tunebjerg.

Music

Bass tab

This song is played on a 5 string bass.

Intro

   Am       B        E7       C        F        D        G        E7
G |--------|--------|--------|--------|--------|--------|--------|--------||
D |--------|--------|--------|--------|--------|--------|--------|--------||
A |--------|--------|--------|--------|--------|--------|7-7-----|--------||
E |--------|--------|--------|--------|--------|--------|--------|--------||
B |--------|--------|--------|--------|--------|--------|--------|5-------||

1st Verse

   Am       B        E7       C        F        D        G        E7
G |--------|--------|--------|--------|--------|--------|--------|--------|
D |--------|--------|--------|--------|--------|--------|--------|--------|
A |7-------|--------|--------|--------|3-------|--------|--------|--7-----|
E |--5-----|--------|--------|--------|--1-----|--------|--------|4-------|
B |--------|--------|--------|--------|--------|--------|--------|--------|
   Am       B        E7       C        F        D        G        E7
G |--------|--------|--------|--------|--------|--------|--------|--------|
D |--------|--------|--------|--------|--------|--------|--------|--------|
A |7-------|--------|5-------|--------|3-------|--------|5-------|--7-----|
E |--5-----|--------|--------|--------|--1-----|--------|--3-----|4-------|
B |--------|--------|--5-----|--------|--------|--------|--------|--------|
   Am       B        E7       C        F        D        E7
G |--------|--------|--------|--------|--------|--------|--------|--------||
D |--------|--------|--------|--------|--------|--------|--------|--------||
A |7-------|--------|5-------|--------|3-------|--------|7-------|7-------||
E |--5-----|--------|--------|--------|--1-----|--------|--------|--------||
B |--------|--------|--5-----|--------|--------|--------|--------|--------||

Chorus

   A        Em       D        A    E
G |--------|--------|--------|--------|
D |--------|--------|--------|--------|
A |--------|--------|--------|----7777|
E |55555555|--------|--------|5555----|
B |--------|55555555|33333333|--------|
   A        Em       D        F#m  E        
G |--------|--------|--------|--------|
D |--------|--------|--------|--------|
A |--------|--------|--------|--------|
E |55555555|--------|--------|--------|
B |--------|55555555|33333333|77775555|
   F            G
G |--------|--------||
D |--------|--------||
A |--------|--------||
E |--------|--------||
B |66666666|666688--||

2nd Verse

   Am       B        E7       C        F        D        G        E7
G |--------|--------|--------|--------|--------|--------|--------|--------|
D |--------|--------|--------|--------|--------|--------|--------|--------|
A |7-------|6-------|55------|3-------|33------|5-------|55------|--77----|
E |--5-----|--7-----|--------|--5-----|--11----|--------|--33----|44------|
B |--------|--------|--55----|--------|--------|--3-----|--------|--------|
   Am       B        E7       C        F        G        E7
G |--------|--------|--------|--------|--------|--------|--------|--------||
D |--------|--------|--------|--------|--------|--------|--------|--------||
A |7-------|6-------|55------|3-------|33------|5-------|7-------|--------||
E |--5-----|--7-----|--------|--5-----|--11----|--------|--------|--------||
B |--------|--------|--55----|--------|--------|--3-----|--------|5-------||

2nd Chorus ending

   F            G    A
G |--------|--------|--------|--------|
D |--------|--------|--------|--------|
A |--------|--------|5-------|5-4-3---|
E |66666666|666688--|--------|--------|
B |--------|--------|--------|--------|
   F            G    A
G |--------|--------|--------|--------|
D |--------|--------|--------|7-6-5---|
A |--------|--------|5-------|--------|
E |66666666|666688--|--------|--------|
B |--------|--------|--------|--------|
   F            G
G |--------|--------||
D |--------|--------||
A |--------|--------||
E |66666666|666688--||
B |--------|--------||

3rd Chorus ending

   D            E    F#m      A
G |--------|--------|--------|--------|
D |--------|--------|--------|--------|
A |55555555|5555----|--------|--------|
E |--------|--------|--------|55555555|
B |--------|----5555|77777777|--------|
                                        2x
   D            E
G |--------|--------||
D |--------|--------||
A |--------|--------||
E |--------|--------||
B |33333333|333355--||