Hoven Droven – Vasen

published by Maarten Tromp

Summary

This is the bass tab for Vasen by Hoven Droven from the album More Happy Moments with Hoven Droven (1999), played by Pedro Blom.

This song is played on a 5-string bass (or a low-tuned 4-string).

Music

Bass tab

Verse

    D                Bm               D                G       A D
G  |----------------|----------------|----------------|----------------||
D  |----------------|----------------|----------------|----------------||
A  |----------------|----------------|----------------|----------------||
E  |------2---------|----------------|------2-------2-|3--3----5-------||
B  |3--3----5--3--2-|0--0----0--0----|3--3----5--3----|----------3-----||

Chorus

    E                                                              G
G  |----------------|----------------|----------------|----------------||
D  |----------------|----------------|----------------|----------------||
A  |----2-2-24--2---|----2-2-24----2-|----2-2-24--2---|------2-4-------||
E  |----------------|------------5---|----------------|----------2-3---||
B  |5-------------3-|--5-------------|5-------------3-|----5-----------||

Bridge

    A                D                A                E           D
G  |----------------|----------------|----------------|----------------|
D  |----------------|----------------|----------------|----------------|
A  |----------------|----------------|----------------|----------------|
E  |5---5---5---5---|----------------|5---5---5---5---|----------------|
B  |----------------|3---3---3---3---|----------------|5---5---5---3---|
    A                B                B♭               G
G  |----------------|----------------|----------------|----------------||
D  |----------------|----------------|----------------|----------------||
A  |----------------|2---2---2---2---|4---4---4---4---|----------------||
E  |5---5---5---5---|----------------|----------------|3---3---3-------||
B  |----------------|----------------|----------------|----------------||