Hoven Droven – Chicago

published by Maarten Tromp

Summary

This is the bass tab for Chicago by Hoven Droven from the album More Happy Moments with Hoven Droven (1999), played by Pedro Blom.

This song is played on a 5 string bass (or actually on a low-tuned 4 string).

Music

Bass tab

Intro

    Dm      Cm       Dm      Cm       Dm      Cm       Dm      Cm
G  |----------------|----------------|----------------|----------------||
D  |----------------|----------------|----------------|----------------||
A  |------5-3---2---|------2-3---2---|------5-3---2---|----------------||
E  |----5-----5---3-|----5-----5---3-|----5-----5---3-|----------------||
B  |3-6-------------|3-6-------------|3-6-------------|3---3-5-6-------||

Verse

    Dm                       Fm         Gm
                     _________________  ________________
                    | 1-3             || 4.
G  |----------------|---------------- ||----------------||
D  |----------------|----------------*||----------------||
A  |----------------|----------------*||----------------||
E  |----------------|----3----------- ||----3---3-------||
B  |3---3---3-------|3-------6------- ||6---------------||

Chorus

    Dm                       Fm       Gm
                                      __________________________________
                                     | 1.                               |
G  |----------------|----------------|----------------|---------------- ||
D  |----------------|----------------|----------------|----------------*||
A  |----------------|----------------|----------------|----------------*||
E  |----------------|----------------|3---3---3---3---|3--------------- ||
B  |3---3---3---3---|3---3--56-------|----------------|--6-6-5-5-3-5-6- ||
    Dm               Am      Dm
    ________________
   | 2.
G  |----------------|----------------||
D  |----------------|----------------||
A  |----------------|----------------||
E  |--------5-------|----------------||
B  |1---3-----------|2---3---3-------||

2nd Intro

    Dm            Fm                  Dm            Am7
                                                       ----------------
                                                      | 1-3            |
G  |----------------|----------------|----------------|----------------||
D  |----------------|----------------|----------------|----------------||
A  |------5-3---2---|----------------|------2-3---2---|----------------||
E  |----5-----5-----|----------------|----5-----5---5-|----------------||
B  |3-6-----------6-|----------------|3-6-------------|----------------||
    Gm      Fm       Dm
    _______________
   | 4.
G  |----------------|----------------||
D  |----------------|----------------||
A  |----------------|----------------||
E  |3-------1-------|----------------||
B  |----------------|3---------------||

3rd Verse

G  |---------------- ||
D  |----------------*||
A  |----------------*||
E  |---------------- ||
B  |3-3-3-3-3-3-3-3- ||

3rd Chorus

    Dm      Cm       Bm      Fm       Gm
                                      __________________________________
                                     | 1,3                              |
G  |----------------|----------------|----------------|---------------- ||
D  |----------------|----------------|----------------|----------------*||
A  |----------------|----------------|----------------|----------------*||
E  |----------------|----3---1-------|3---3---3---3---|1-2-3---3---3--- ||
B  |3-------1-------|0---------------|----------------|---------------- ||
    Dm               Am      Dm
    _________________________________
   | 2.                              ||
G  |----------------|----------------||
D  |----------------|----------------||
A  |----------------|----------------||
E  |--------5-------|----------------||
B  |1---3-----------|2---3---3-------||

Outtro

Repeat second two measures from chorus.