Höllenboer – Het busje komt zo

published by Maarten Tromp

Dit is de bass tab voor Het busje komt zo van Höllenboer van het album Het busje komt zo (1995), gespeeld door Bas van den Toren.

Muziek

Bass tab

Dit nummer wordt op contrabas gespeeld.

Intro

    C
G  |----------------|
D  |--------0---2---|
A  |----3-----------|
E  |----------------|
    F                                 B♭
G  |----------------|----------------|----------------|3-------2---0---|
D  |3---------------|----------------|--------3-------|----------------|
A  |--------3-------|--------3---2---|1---------------|----------------|
E  |----------------|1---------------|----------------|----------------|
    F                C                F
G  |----------------|----------------|----------------|----------------||
D  |3---------------|--------0---2---|3-------0-------|----------------||
A  |--------0---1---|3---------------|----0-------3---|----------------||
E  |----------------|----------------|----------------|1---------------||

Couplet

    F                                 C
G  |----------------|----------------|-----------0----|5-------3---0---|
D  |----------------|3-------2---0---|-------2--------|----------------|
A  |--------3-------|----------------|3---------------|----------------|
E  |1---------------|----------------|----------------|----------------|
    Er liepen twee verslaafden        zo maar over     straat
    C                                 F
G  |------------0---|5---3---2---0---|----------------|----------------|
D  |--------2-------|----------------|3---------------|----------------|
A  |3---------------|----------------|--------1---3---|--------1---3---|
E  |----------------|----------------|----------------|1---------------|
    De een vroeg aan de ander zeg weet jij misschien hoe laat
    F                F7               B♭               B♭7
G  |----------------|2-------0-------|----------------|3-------2---0---|
D  |3-----------3---|------------3---|--------0---3---|----------------|
A  |--------3-------|----------------|1---------------|----------------|
E  |----------------|----------------|----------------|----------------|
    hoe laat komt hier de bus         hoe laat komt hier de bus
    F                                 C                F
G  |----------------|----------------|----------------|----------------|----------------||
D  |----------------|3-------2---0---|----------------|----------------|3---------------||
A  |--------0---3---|----------------|3---1---0-------|---------0--3---|----------------||
E  |1---------------|----------------|------------3---|1---------------|----------------||
    hoe laat komt hier de bus         toen zei die ander dus 

Refrein

    F                                 C
G  |----------------|a---------------|----------------|----------------|
D  |--------7---a---|--------a---7---|----------------|a---------------|
A  |8---------------|----------------|--------7---a---|--------a---7---|
E  |----------------|----------------|8---------------|----------------|
    Busje komt zo    busje komt zo    busje komt zo    busje komt zo
                a=10
    C                                 F
G  |----------------|----------------|----------------|a---------------|
D  |----------------|a---8---7-------|--------7---a---|--------8---a---|
A  |--------7---a---|------------a---|8---------------|----------------|
E  |8---------------|----------------|----------------|----------------|
    busje komt zo    busje komt zo    busje komt zo    busje komt zo
    F                F7               B♭               B♭7
G  |----------------|----------------|----------------|----------------|
D  |----------------|8---------------|----------------|7---------------|
A  |8-------7---a---|--------7---a---|8-----------8---|--------a---8---|
E  |----------------|----------------|--------8-------|----------------|
    busje komt zo    busje komt zo    busje komt zo    busje komt zo
    F                                 C                F
G  |----------------|----------------|----------------|----------------|a---------------||
D  |--------7---8---|9---a---7-------|----------------|--------7---a---|----------------||
A  |8---8-----------|------------8---|----7---a---7---|8---------------|----------------||
E  |----------------|----------------|8---------------|----------------|----------------||
    Eventjes      geduld nog want het busje       komt zo 

2e couplet

    F                                 C
G  |----------------|----------------|-----------0----|5-------3---0---|
D  |----------------|3-------2---0---|-------2--------|----------------|
A  |--------3-------|----------------|3---------------|----------------|
E  |1---------------|----------------|----------------|----------------|
    Er lagen twee verslaafden         samen in de goot
    C                                 F
G  |------------0---|5---3---2---0---|----------------|----------------|
D  |--------2-------|----------------|3---------------|----------------|
A  |3---------------|----------------|--------1---3---|--------1---3---|
E  |----------------|----------------|----------------|1---------------|
    De een was half  levend en de     ander half dood
    F                F7               B♭               B♭7
G  |----------------|2---0-----------|----------------|3-------2---0---|
D  |3-----------3---|--------3-------|--------0---3---|----------------|
A  |--------3-------|------------3---|1---------------|----------------|
E  |----------------|----------------|----------------|----------------|
    Toen kwam er een agent aan die    vroeg wat moet dat hier
    F                                 C                F
G  |----2---3---4---|5---3---2-------|--------0-------|----------------|----------------||
D  |3---------------|------------3---|----2-------2---|3---------------|----------------||
A  |----------------|----------------|3---------------|---------1--3---|----------------||
E  |----------------|----------------|----------------|----------------|1---------------||
    Wij wachten op ons busje dat komt over een kwartier