Het Goede Doel – België

published by Maarten Tromp

Summary

Dit is de bass tab voor België van Het Goede Doel, van hun debutalbum België (1982), gespeeld door Stephan Wienjus.

Muziek

Bass tab

Intro

    Cm                                E♭
G  |---5------3-5---|---5------5---7-|---8------88----|---8------8-----|
D  |----------------|----------------|----------------|----------------|
A  |3---x-3-3-----3-|3---x-3-3---55--|6---x-6-6-----6-|6---x-6-6-------|
E  |----------------|----------------|----------------|--------------0-|
    s  ps s s p h s  s  hs s s p ssp  s  ps s s pp  s  s  ps s s p   s
    G♭                                Fm               B♭7
G  |----------------|----------------|----------------|--3------3----3-||
D  |---4------4-----|---4------4---4-|---3------3---3-|----------------||
A  |----------------|----------------|----------------|1---xx11---xx1--||
E  |2---x-2-2-----2-|2---x-2-2---22--|1---x-1-1--x11--|----------------||
    s  ps s s p   s  s  ps s s p ssp  s  ps s s psssp  s p sssssp sssp

Couplet

    Cm
                     _________________  ________________
                    | 1-3.            || 4.
G  |---5------3-5---|---5--------5-5- ||---5------5---7-|
D  |----------------|----------------*||----------------|
A  |3---x-3-3-----3-|3---x-x-3-3-----*||3---x-x-3---5---|
E  |----------------|---------------- ||----------------|
    s  ps s s p h s  s  ps s s s p p    s  ps s s p s p
    E♭                                A♭               B♭
G  |---8------8-----|---8------8-----|----------------|----------------|
D  |----------------|----------------|----6-----6---6-|--8---------6-5-|
A  |6---x---6-----x-|6---x---6-------|----------------|----------------|
E  |----------------|------------\---|4-----4-4---4---|6---x-6-6-------|
    s  ps   s p s p  s  ps   s p s p  s   p s s p s p  s p s s s   p p
    F                                 G7
G  |----------------|----------------|----------------|----------------||
D  |--3-------3-----|--3-------3-----|--5-------5-----|--5-----------5-||
A  |----------------|----------------|----------------|----------------||
E  |1-----1-1-----1-|1-----1-1-------|3---x-3-3-----x-|3-------x-3-3---||
    s p   s s p   s  s p   s s p      s p s s s p   s  s p     s s s p

Refrein

    A♭                                                 Gm7
G  |----------------|----------------|----------------|----------------|
D  |--6---6---6---6-|--6---6---6---6-|--6---6---6---6-|--5---5---5---5-|
A  |----------------|----------------|----------------|----------------|
E  |4---4---4---4---|4---4---4---4---|4---4---4---4---|3---3---3---3---|
    Fm                                B♭
                                                       _________________
                                                      | 1.              |
G  |----------------|----------------|--3---3---3---3-|--3---5---8---7- ||
D  |--3---3---3---3-|--3---3---3---3-|----------------|----------------*||
A  |----------------|----------------|1---1---1---1---|1---3---6---5---*||
E  |1---1---1---1---|1---1---1---1---|----------------|---------------- ||
    ________________
   | 2.
G  |--3---3---3---3-||
D  |----------------||
A  |1---1---1---1---||
E  |----------------||

Brug

    B                                 E♭maj7
G  |----------------|----------------|----------------|----------------|
D  |----------------|----------------|----------------|4---4-----------|
A  |2---------------|4---------------|--------------4-|--4-----4-4-4-5-|
E  |----------------|------------4---|2---------------|----------------|
    E♭m              A♭               D♭
G  |----------------|----------------|----------------|----------------|
D  |----------------|----------------|----------------|----------------|
A  |6---------------|----------------|4---------------|4---4-------4-3-|
E  |----------------|4-----------4---|--------------4-|--4-------4-----|
    B                                 E♭maj7
G  |----------------|----------------|----------------|----------------|
D  |----------------|----------------|----------------|4---6---4-------|
A  |2---------------|4---------------|--------------4-|--4-------6-4-5-|
E  |----------------|----------0-0-1-|2---------------|----------------|
    E♭m              A♭               D♭
G  |----------------|----------------|----------------|----------------|
D  |----------------|----------------|----------------|----------------|
A  |6---------------|----------------|4---------------|4---4-------4-3-|
E  |--------------6-|4-----------4---|--------------4-|--4-------4-----|
     B                D♭               B♭m              E♭m7
G || --------------4-|----------------|----------------|----------------|
D ||*----------------|----------------|--------------0-|1---1---1-------|
A ||*2---2---2-------|4---4---4--44-0-|1---1---1-------|------------4---|
E || ----------------|----------------|----------------|----------------|
    B                D♭               E♭m7
                                      __________________________________
                                     | 1.                               |
G  |----------------|----------------|----------------|---------------- ||
D  |----------------|----------------|1---1---1-----1-|1---1---1-1-----*||
A  |2---2---2-----2-|4---4---4-----4-|----------------|------------4---*||
E  |----------------|----------------|----------------|---------------- ||
                                      E♭m7
                                      ________________
                                     | 2.
                                  G  |----------------|----------------|
                                  D  |1---------------|----------------|
                                  A  |----------------|----------------|
                                  E  |----------------|----------------|
    B                                 A♭7
G  |----------------|----------------|----------------|----------------|
D  |----------------|----------------|----------------|----------------|
A  |2---------------|----------------|----------------|----------------|
E  |----------------|----------------|4---------------|----------------|
    Emaj7                             D♭m7    E♭m      E       G♭
G  |----------------|----------------|----------------|----------------||
D  |----------------|----------------|--------1-------|----------------||
A  |----------------|----------------|4---------------|----------------||
E  |0---------------|----------------|----------------|0-------2-------||