Frans Tromp – Verschuur

published: by Maarten Tromp.

Dit is de bass tab voor Verschuur van Frans Tromp, van het album Noorderlijk halfrond (2002), gespeeld door Maarten Tromp.

Muziek

Enable JavaScript to get the extended player.

album bass
album bass

Bass tab

A

G  |------------|------------|------------|------------||
D  |------------|------------|------------|------------||
A  |--------4---|5-----------|7-----------|------------||
E  |5-----------|------------|------------|5-----------||

B1

G  |------------|------------|------------|------------||
D  |------------|------------|6-----------|7-----------||
A  |5-----------|7-----------|------------|------------||
E  |------------|------------|------------|------------||

B2

                                           _____________
                                          | 1.          |
G  |------------|------------|------------|------------ ||
D  |------------|------------|4-------6---|7-----------*||
A  |4-------5---|7-----------|------------|------------*||
E  |------------|------------|------------|--------7--- ||
                                           ____________
                                          | 2.
                                       G  |------------||
                                       D  |7-----------||
                                       A  |------------||
                                       E  |------------||

A3

                                           _____________
                                          | 1.          |
G  |------------|------7---7-|------9---9-|------------ ||
D  |------7---7-|------------|------------|------7---7-*||
A  |------------|5-----------|7-------x---|------------*||
E  |5-------x---|--------x---|------------|5-------x--- ||
    s     p s p  s     p s p  s     p s p  s     p s p
                                           ____________
                                          | 2.
                                       G  |------------||
                                       D  |------------||
                                       A  |------------||
                                       E  |5-----------||
                                           s

B3

                                           _____________
                                          | 1.          |
G  |----6-------|------9-----|------------|------------ ||
D  |------------|------------|------2---2-|----7-------*||
A  |4-------5---|7---x-------|------------|------------*||
E  |------------|--------7---|0-------x---|055-----7--- ||
    s   p   s    s   s p s    s     p s p  shs p   s
                                           ____________
                                          | 2.
                                       G  |------------||
                                       D  |------------||
                                       A  |------------||
                                       E  |5-----------||
                                           s