Frans Tromp – Parijs / Riggs of Doom

published: by Maarten Tromp.

Dit is de bass tab voor Parijs / Riggs of Doom van Frans Tromp, van het album Noorderlijk halfrond (2002), gespeeld door Maarten Tromp.

Muziek

Enable JavaScript to get the extended player.

album bass
album bass

Bass tab

Intro

    D                G       D        G       D        E       A
G  |--------7---6---|----4-----------|----4---7-------|----------------|
D  |----7-----------|5-----------7---|5---------------|----6---7-------|
A  |5---------------|--------5-------|------------5---|7-----------4---|
E  |----------------|----------------|----------------|----------------|
    D                G       D        G       A        D
G  |----------------|----4-----------|------------6---|7---------------||
D  |----4---7---6---|5-----------7---|5---6---7-------|----7-----------||
A  |5---------------|--------5-------|----------------|--------5-------||
E  |----------------|----------------|----------------|----------------||

A

    G                C       G        C       G        A       D
                                      __________________________________
                                     | 1.                               |
G  |----------------|----5-5---------|----5-5---------|------------7--- ||
D  |----5-5-----5---|------------5---|------------5---|----7-7---------*||
A  |----------------|3---------------|3---------------|--------5-------*||
E  |3-------3-------|--------3-------|--------3-------|5--------------- ||
                                      C       D        G
                                      ________________
                                     | 2.
                                  G  |----5-5-----7---|----------------||
                                  D  |----------------|----5-----------||
                                  A  |3-------5-------|----------------||
                                  E  |----------------|3-------3-------||

B

    E       D        C      B         E       C        A       D
G  |----------------|----------------|----------------|----------------|
D  |2---------------|----------------|----------------|----------------|
A  |--------5-------|3---------------|--------3-------|--------5-------|
E  |----------------|-------2--------|0---0-----------|5---5-----------|
    C       G        C       G        D       G        D       G
G  |----------------|----------------|----------------|----------------|
D  |----------------|----------------|----------------|----------------|
A  |3---3-3---------|3---3-3---------|5---5-5---------|5---5-5---------|
E  |--------3-------|--------3-------|--------3-------|--------3-------|
     C       E        C       G        C       G        A       D
                                       __________________________________
                                      | 1.                               |
G || ----------------|----------------|----------------|---------------- ||
D ||*----------------|----------------|----------------|----------------*||
A ||*3---3-3---------|3---3-3---------|3---3-3---------|--------5-------*||
E || --------0-------|--------3-------|--------3-------|5---5-5--------- ||
                                       D       G        D       G
                                       ________________
                                      | 2.
                                   G  |----------------|----------------||
                                   D  |----------------|----------------||
                                   A  |5---5-5---------|5---5-----------||
                                   E  |--------3-------|--------3-------||