Frans Tromp – 100 Motoren

published: by Maarten Tromp.

Dit is de bass tab voor 100 Motoren van Frans Tromp, van het album Noorderlijk halfrond (2002), gespeeld door Maarten Tromp.

Muziek

Enable JavaScript to get the extended player.

album bass
album bass

Bass tab

A

    G            D            G     C      D
                                           _____________
                                          | 1.          |
G  |------------|------------|------------|------------ ||
D  |------5-----|------4---5-|------------|------7-----*||
A  |------------|5---5---5---|------3--3--/5---5---x-5-*||
E  |3---3-----3-|------------|3---3-------|------------ ||
                                           D
                                           ____________
                                          | 2.
                                       G  |------------||
                                       D  |------------||
                                       A  /5-x-x-------||
                                       E  |------3-----||

B

                 _____________
                | 1-3.        |
G  |------------|------------ ||
D  |------------|------------*||
A  |3-----2-----|------------*||
E  |------------|5-----3----- ||
                 ____________
                | 4.
             G  |------------||
             D  |--2-3-5-----||
             A  |5-----------||
             E  |------------||