Frank Boeijen Groep – Zwart wit

published: by Maarten Tromp.

Dit is de bass tab voor Zwart wit van de Frank Boeijen Groep, van het album Kontakt (1983), gespeeld door Nels Busch.

Muziek

Bass tab

Intro

    Dm               G                B♭               C
G  |----------------|----------------|----------------|----------------||
D  |----------------|----------------|----------------|----------------||
A  |5---------------|----------------|----------------|--5--3--3-------||
E  |----------------|3---------------|6---------------|----------------||

Couplet

    Dm               B♭               C                G
                                                       _________________
                                                      | 1-3             |
G  |----------------|----------------|----------------|---------------- ||
D  |----------------|----------------|----------------|--------5---3---*||
A  |5-----5-5-------|----------------|3-----3-3-------|----------------*||
E  |----------------|6-----6-6-------|----------------|3-----3--------- ||
                                                       G
                                                       ________________
                                                      | 4.
                                                   G  |----------------|
                                                   D  |----------------|
                                                   A  |----------------|
                                                   E  |3-----3-3---5---|
    B♭               C                Dm      C        B♭
G  |----------------|----------------|----------------|----------------|
D  |----------------|----------------|----------------|----------------|
A  |----------------|3-----3-3-------|5-------3-------|------------3---|
E  |6-----6-6-------|----------------|------------5---|6-----6-6-------|
    Dm               G
G  |----------------|----------------||
D  |----------------|----------------||
A  |5-----5-5-------|--------3---4---||
E  |----------------|3-----3---------||

Refrein

    Dm               G                B♭               Dm      C
                                                       _________________
                                                      | 1.              |
G  |----------------|----------------|----------------|---------------- ||
D  |----------------|----------------|----------------|----------------*||
A  |5-----5-5-------|----------------|----------------|5-----3-3---4---*||
E  |----------------|3-----3-3---5---|6-----6-6-------|---------------- ||
                                                       Dm      C
                                                       ________________
                                                      | 2.
                                                   G  |----------------|
                                                   D  |----------------|
                                                   A  |5-----3-3-------|
                                                   E  |------------5---|
    B♭maj7           Dm      C
G  |----------------|----------------|----------------|----------------||
D  |----------------|----------------|----------------|----------------||
A  |------------3---|5---------------|3-----3-3-------|--3--3--3-------||
E  |6-----6-6-------|--------5---6---|----------------|----------------||

Brug

Laatste maat van het refrein valt weg voor de brug.

    Am               G                B♭               C
G  |----------------|----------------|----------------|----------------|
D  |----------------|----------------|----------------|----------------|
A  |----------------|----------------|----------------|3-----3-3-------|
E  |5-----5-5-------|3-----3-3---5---|6-----6-6-------|----------------|
    Am               G
G  |----------------|----------------||
D  |----------------|----------------||
A  |----------------|--------3---4---||
E  |5-----5-5-------|3-----3---------||