Frank Boeijen Groep – Kronenburg Park

published: by Maarten Tromp.

Dit is de bass tab voor Kronenburg Park van Frank Boeijen Groep, van het album Foto van een mooie dag (1985), gespeeld door Nels Busch.

Muziek

Bass tab

Intro

    Dm                                Gm
G  |----------------|----------------|----------------||
D  |----------------|----------------|----------------||
A  |5-5-5-5-5-5-5-5-|5-5-5-5-5-5-5-5-|----------------||
E  |----------------|----------------|3-3-3-3-3-------||

Couplet

    Gm      E♭       B♭      Cm
G  |----------------|---------------- ||
D  |----------------|----3-----------*||
A  |----5---6-----0-|1-----1-3-----1-*||
E  |3-----3---------|---------------- ||
    E♭               B♭      Cm       F                Cm      D
G  |------1---------|----------------|----------------|----------------||
D  |1---1-----------|-----3----------|----------------|----------------||
A  |----------------|-1-----1-3--\---|----------------|3-----1-5-------||
E  |----------------|----------------|1-1-1-1-1-1-1-1-|----------------||

Voor het refrein wordt het couplet een halve maat verlengd.

Refrein

    Gm  F            B♭     Gm        F   Cm
G  |----------------|----------------|---------------- ||
D  |------3---3-----|----------------|----------------*||
A  |-------------30-|1----10---------|----3-------3---*||
E  |3---1---1---1---|-------3------0-|1---------1----- ||
    Dm
G  |----------------|----------------||
D  |----------------|----------------||
A  |5-5-5-5-5-5-5-5-|5-5-5-5-5-5-5-5-||
E  |----------------|----------------||

Solo / uittro

    Gm      E♭       B♭      Cm
G  |----------------|-3--------------||
D  |----------------|----------------||
A  |-------5656----0|1------1313-----||
E  |3---------------|--------------1-||