Fluxus – De race

published by Maarten Tromp

Dit is de bass tab voor De race van Fluxus, van het album NOË (2001), gespeeld door Sam van Ingelgem op vijfsnarige fretloze bas.

Muziek

Enable JavaScript to get the fancy player.

Bass tab

A

    Gm               B♭m     Fm       Gm               B♭m     Fm
G  |------------23--|--/3------------|----------0-232-|--/3------------||
D  |---5-x35--------|----------3---4-|---5-x35--------|----------------||
A  |----------3---2-|1---------------|----------------|1---------------||
E  |3---------------|------0-1---2---|3---------------|------0-1---2---||
B  |----------------|----------------|----------------|----------------||

B

    Gm      B♭m      Am      D          Am      D
                     _________________  ________________
                    | 1-3             || 4.
G  |----------------|---------------- ||----------------||
D  |----------------|---------------- ||----------------||
A  |----------------|--------5x-3-5--*||----------5-----||
E  |3---5---6-----6-|5-----5---------*||5-----5-------5-||
B  |----------------|---------------- ||--------3---3---||

C

    Gm               Fm
G  |----------------|----------------||
D  |----------------|----------------||
A  |----------------|----------------||
E  |3-----3-3-----3-|1---1-1-1---2---||
B  |----------------|--3-------------||

D

    Gm
G  |----------------|----------------|----------------|----------------||
D  |---5-x35--3---4-|---5-x35--------|---5-x35--3---4-|---5-x35----3-5-||
A  |----------------|----------------|----------------|--------3-5-----||
E  |3-------1---2---|3-------1---2---|3-------1---2---|3---------------||
B  |----------------|----------------|----------------|----------------||

Met diverse variaties.

Brug

    Gm      Am       B♭m                Cm
G  |----------------|----------------|| ---------------- ||----------------|
D  |----5-----------|----------------||*----------------*||-----------3--5-|
A  |----------------|------------5-\-||*3---1-3-1-------*||3---1-3-5-------|
E  |3-----3-5-----5-|6-------5-\-----|| --3-------31--3- ||--3-------------|
B  |----------------|----------------|| ---------------- ||----------------|
                                                play 11x
    Gm      Am       B♭m
G  |----------------|----------------||
D  |----------------|----------------||
A  |----------------|----------------||
E  |3---3-3-5-----5-|6-------5-\-----||
B  |----------------|----------------||