Fischer-Z – The Worker

published by Maarten Tromp

Summary

This is the bass tab for The Worker by Fischer-Z, from their debut album World Salad (1979), played by David Graham.

Music

Bass tab

Intro

G  |----------------||
D  |----------------||
A  |h\\\\\\\\\\\\\0-||
E  |----------------||
    h=17

Verse

    Am               Em               Am               Em
G  |----------------|----------------|----------------|----------------|
D  |--------------x-|2-2---------2---|--------------x-|2-2---------2---|
A  |0-0---x-0-0-----|------x-2-2---2-|0-0----x-0-0----|------x-2-2---2-|
E  |----------------|----------------|----------------|----------------|
    F                                 G
G  |----------------|----------------|----------------|----------------||
D  |----------------|----------------|----------------|--------2-0-----||
A  |----------------|----------------|----------------|------2-----3-2-||
E  |1-1---x-1-1---x-|1-1---x-1-1---x-|3-3---x-3-3---x-|3-3-------------||

There are some variations, mostly on the 2nd bar.

Chorus

    Am               Em               F
G  |----------------|----------------|----------------|----------------||
D  |--------------x-|2-2----x-5-5--x-|3-3-------------|----------------||
A  |0-0---x-3-3-----|----------------|--------x-3-3---|--------------x-||
E  |----------------|----------------|--------------x-|1-1-----x-3-3---||