Eliza Carthy – Greenwood Laddie

published by Maarten Tromp

This is the bass tab for Greenwood Laddie by Eliza Carthy from the album Red Rice (), played by Barnaby Stradling on acoustic bass guitar.

Music

Enable JavaScript to get the fancy player.

Play (key: space) Pause (key: space)
Help
VVVSVV

Bass tab

Verse

    Am      Gm    F♯m                                                            Fm         
                     _________________  ________________  ________________  ________________
                    | 1, 3, 5         || 2.             || 4.             || 6.
G  |----------------|---------------- ||----------------||----------------||----------------|
D  |----2-----------|----------------*||----4-5-4-------||--4---5---6---7-||----------------|
A  |----------5-----|--5---------2-3-*||--5-------5-2-3-||----------------||--5-------------|
E  |5-----0-3-----2-|------2-3-5----- ||----------------||----------------||-----1----------|
    Dm      Em       Dm      Fm C     Dm      Em       Dm      -
G  |--5-4242--4-----|--5-4202--------|--5-4242--4-----|--5-402---------||
D  |0-------2-------|0---------------|0-------2-------|0---------------||
A  |----------------|-----------3----|----------------|----------------||
E  |----------------|--------1-------|----------------|----------------||