Eagles – Hotel California

published: by Maarten Tromp.

This is the bass tab for Hotel California by the Eagles, from the album Hotel California (1976), played by Randy Meisner.

Music

Bass tab

Intro

   Bm               F#               A                E
G |----------------|----------------|----------------|----------------|
D |----------------|4---------------|----------------|----------------|
A |2---------------|----------------|----------------|7---------------|
E |----------------|----------------|5---------------|----------------|
   G                D                Em               F#
G |----------------|----------------|----------------|----------------|
D |----------------|----------------|----------------|----------------|
A |----------------|5---------------|----------------|----------------|
E |3---------------|----------------|0---------------|2---------------|
   Bm               F#               A                E
G |--------9---b---|9---------------|------------9---|----------------|
D |c---------------|------c-b-------|b-------c-------|9---------------|
A |----------------|----------------|----------------|----------------|
E |----------------|----------------|----------------|----------------|
a=10, b=11, c=12
   G                D                Em               F#
G |----------------|----------------|9-------b---c---|b---------------||
D |9-------b---c---|----------------|----------------|----------------||
A |----------------|c---------------|----------------|----------------||
E |----------------|----------------|----------------|----------------||

Verse

   Bm               F#               A                E
G |----------------|---b----b-------|----------------|---9----9-------|
D |---9----99------|--b----b-b------|---7----77------|--9----9-9------|
A |--9----9--9-----|99--------9-----|--7----7--7-----|77--------7-----|
E |77--------------|----------------|55--------------|----------------|
   G                D                Em               F#
G |----------------|---7----77------|----------------|----------------||
D |---5----55------|--7----7--7-----|---2----22------|---4----4---4---||
A |--5----5--5-----|55--------------|--2----2--2-----|--4----4---4----||
E |33--------------|----------------|00--------------|22--------------||

Chorus

   G                D                Em               Bm
G |----------------|7------7---7----|----------------|----------------|
D |5-------5---5---|-7----7---7-----|4-------4---4---|------------2-4-|
A |-5-----5---5----|--5-------------|-4-----4---4----|2---4---5-------|
E |--3-------------|----------------|--2-------------|----------------|
   G                D                Em               F#
G |-----------------|7------7---7---|----------------|----------------||
D |-5-------5---5---|-7----7---7----|2-------2---2---|--4-----4-------||
A |--5-----5---5----|--5------------|-2-----2---2----|-4-----4---4----||
E |---3-------------|---------------|--0-------------|2-----------2---||