Doe Maar – Smoorverliefd

published: by Maarten Tromp.

Dit is de bass tab voor Smoorverliefd van Doe Maar, van het album Skunk (1981), gespeeld door Henny Vrienten.

Muziek

Bass tab

Intro

G || ---------------- ||
D ||*----------------*||
A ||*7---------------*||
E || --5-5---5-----5- ||

Couplet

G  |----------------|----------------|----------------|--------9---7---|
D  |----------------|----------------|----------------|---6--9---------|
A  |3---1-----------|3-3-1---------3-|3---1-----------|7---------------|
E  |--------1-------|--------1-------|--------1-------|----------------|
G  |----------------|----------------|----------------||
D  |--------5---5---|----------------|----------------||
A  |8---8-----------|7---------------|7---------------||
E  |----------------|--5-5---5-----5-|--5-5---5-----5-||

Refrein

                                                        _________________
                                                       | 1.              |
G || ----------------|----------------|--3-3-3---------|---------------- ||
D ||*----------------|----------------|--------3---3---|----------------*||
A ||*--3-3-3-3---3---|----------------|----------------|3-3-------------*||
E || ----------------|3---3---3-------|----------------|----3----------- ||
    ________________
   | 2.             |
G  |--------9---7---|--------5---5---|--------7---7---|
D  |---6--9---------|3-3-3-3---------|5-5-5-5---------|
A  |7---------------|----------------|----------------|
E  |----------------|----------------|----------------|
G || ----------------|---------------- ||
D ||*--------5---5---|----------------*||
A ||*3-3-3-3---------|3---3---3-------*||
E || ----------------|---------------- ||

Solo / einde

G  |----------------|----------------|----------------|----------------||
D  |----------------|----------------|----------------|----------------||
A  |7---------------|7---------------|7---------------|7-------7-------||
E  |--5-5---5-----5-|--5-5---5-----5-|--0-0---0-----0-|--5-5-----5-5---||