Doe Maar – Rumah Saya

published by Maarten Tromp

Summary

Dit is de bass tab voor Rumah Saya van Doe Maar, van het album Skunk (1981), gespeeld door Henny Vrienten.

Muziek

Bass tab

Intro

    F                C                F                C
G  |----------------|----------------|----------------|---------------- ||
D  |3---------------|----------------|----------------|----------------*||
A  |----------------|3---------------|----------------|3---------------*||
E  |----------------|----------------|1-------/-------|---------------- ||
    Dm
G  |----------------|----------------|----------------|----------------||
D  |----3-----------|----------------|----3-----------|----------------||
A  |------------3---|----------------|5-5---5---------|----------------||
E  |--------5-5-----|--------------5-|--------5--5--5-|--------------5-||

Couplet

    Dm                                C
                                                       ________________   ________________
                                                      | 1.               | 2.
G  |----------------|----------------|----------------|---------------- ||----------------|
D  |----3-----------|----------------|----2-----------|----------------*||----------------|
A  |5-----------3---|----------------|3-3---------3---|----------------*||--------3-3---3-|
E  |--------5-5-----|--------------3-|--------3-3-----|--------------5- ||------------5---|
    Dm               C                Dm
G  |----------------|----------------|----------------|----------------||
D  |----------------|----------------|----------------|----------------||
A  |----5-----------|----3-----------|----5-----------|----------------||
E  |----------------|----------------|----------------|----------------||

Refrein

    F                C                  C
                     ________________   ________________
                    | 1-7              | 8.
G  |--------5-2---2-|---------------- ||----5-----------|
D  |------------3---|----------------*||----------------|
A  |----------------|3---3---3-------*||3-------3-------|
E  |----------------|---------------- ||----------------|
    Dm
G  |----------------|----------------|----------------|----------------||
D  |----------------|7-7-7-7-7---7---|----------------|----------------||
A  |/-5-----------5-|----------------|5---------------|\---------------||
E  |----------------|----------------|----------------|--------------5-||

Solo

Zoals tweede balk van intro, met kleine variaties.

Solo

Zoals refrein, met kleine variaties.