Doe Maar – Pa

published: by Maarten Tromp.

Dit is de bass tab voor Pa van Doe Maar, van het album 4us (1983), gespeeld door Henny Vrienten.

Muziek

Bass tab

Couplet

A

G  |----------------||
D  |2-2-------------||
A  |----------------||
E  |--------3-3-----||

A'

G  |----------------||
D  |2-2-------------||
A  |------------2-5-||
E  |--------3-3-----||

B

G  |----------------|----------------||
D  |----------------|--------2-5-2---||
A  |3-3-3---2-2-2---|0---2-5---------||
E  |----------------|----------------||

Refrein

                                      __________________________________
                                     | 1.                               |
G  |----4-4-4-4-4-4-|2---------------|----------------|---------------- ||
D  |2---------------|----0---0-------|------4-5-4-2---|0---------------*||
A  |----------------|----------------|----------------|----0-0-0-------*||
E  |----------------|----------------|----------------|---------------- ||
    _________________________________ ________________
   | 2.                              | 3.
G  |----------------|----2-2-2-------|----------------|----------------|
D  |----2-4-5-4-2---|0---------------|----2-5-5-5-5---|4---------------|
A  |----------------|----------------|----------------|----2---2-------|
E  |----------------|----------------|----------------|----------------|
G  |----------------|----------------||
D  |----5-5---------|----7-7---------||
A  |3-------3-------|5-------5-------||
E  |----------------|----------------||