Doe Maar – Okee

published by Maarten Tromp

Summary

Dit is de bass tab voor Okee van Doe Maar, van het album Doris Day en andere Stukken (1982), gespeeld door Henny Vrienten.

Muziek

Bass tab

Couplet

    Gm               Dm                 F                Am
G  |----------------|---------------- ||----------------|----------------||
D  |-35-5--35-5-----|----------------*||--3-3---3-3-----|-57-7--57-7-----||
A  |5-----5---------|-35-5--35-5-----*||35----35--------|7-----7---------||
E  |----------------|5-----5--------- ||----------------|----------------||

Refrein

    B♭      F        Gm                 Gm                C        G
                     _________________  ________________  ________________
                    | 1.              || 2.             || 3.
G  |----------------|---------------- ||----------------||----------------|
D  |3---------------|----------------*||----------------||---5------------|
A  |--1-1---3-------|----------------*||-5-55-----------||3----3-----5----|
E  |----------1-1---|33-33----------- ||3---------------||--------3----3--|
    Am
G  |----------------|----------------||
D  |----------------|-a-------a------||
A  |---------------a|c----a-ac-------||
E  |5---------------|---ac-----------||
    a=10, b=11, c=12