Doe Maar – Nachtzuster

published by Maarten Tromp

Summary

Dit is de bass tab voor Nachtzuster van Doe Maar, van het album 4us (1983), gespeeld door Henny Vrienten.

Muziek

Er zitten een paar kleine verschillen tussen de album- en live versie.

Bass tab

Intro

    Dm
G  |----757-------5- ||----------------||
D  |------------57--*||----------------||
A  |5---------------*||5---------------||
E  |---------------- ||----------------||
             play 3x

Couplet

    F       Cm       F                        Cm       F 
G  |----------------|----------------|----------------|----------------|
D  |323-------------|-----02-323-----|323-------------|-----02-32323---|
A  |------323-------|---3------------|------323-------|---3------------|
E  |----------------|1---------------|----------------|1---------------|
            Cm       F                A♭      B♭       C
G  |----------------|----------------|----------------|----------------||
D  |323-----65656---|-----02-323-----|----------------|----------------||
A  |----------------|---3------------|----666-----888-|---a-aa-a-------||
E  |----------------|1---------------|--4-------6-----|8---------------||
    a=10

Refrein

    Dm      B♭  C    Dm      B♭  C    Gm      Am  C    Dm          C
G  |----757---------|----757---------|----757---------|----757---------|
D  |----------------|----------------|----------------|----------------|
A  |5-----------3---|5-----------3---|------------3---|5---------5-3---|
E  |----------6-----|----------6-----|3---------5-----|----------------|
    B♭      Gm  Am   B♭      Gm  Am   B♭     Gm   Am   Dm
G  |----757---------|----757---------|----757---------|----757-------5-|----757---------||
D  |----------------|----------------|----------------|------------57--|----------------||
A  |6---------------|6---------------|6---------------|5---------------|5---------------||
E  |----------3-5---|----------3-5---|----------3-5---|----------------|----------------||

Brug

    E
G  |----------------|---------------- ||
D  |----------------|----------------*||
A  |----------------|--------------57*||
E  |0---------------|-------------7-- ||
                              play 4x

Laatste refrein / Uittro

Het laatste refrein is een halve toon lager dan de eerdere.

    C♯m     A   B    C♯m     A   B    C♯m     A   B    C♯m         B
G  |----646---------|----646---------|----646---------|----646---------|
D  |----------------|----------------|----------------|----------------|
A  |4-----------2---|4-----------2---|------------2---|4---------4-2---|
E  |----------5-----|----------5-----|2---------4-----|----------------|
     A       F♯m G♯m  A       F♯m G♯m  A       F♯m G♯m  C♯m         B
G || ----646---------|----646---------|----646---------|----757--------- ||
D ||*----------------|----------------|----------------|----------------*||
A ||*5---------------|5---------------|5---------------|5-----------2---*||
E || ----------2-4---|----------2-4---|----------2-4---|---------------- ||