Doe Maar – Is dit alles

published: by Maarten Tromp.

Dit is de bass tab voor Is dit alles van Doe Maar, van het album Doris Day en andere Stukken (1982), gespeeld door Henny Vrienten.

Muziek

Bass tab

Couplet

A

    Dm
G  |----------------|----------------||
D  |--------7-7-7-7-|----------------||
A  |5-----5---------|5---------------||
E  |----------------|--------5---5---||

A'

    Dm
G  |----------------/9---7-----------||
D  |--------7-7-7-7-|--------7-------||
A  |5-----5---------|------------876-||
E  |----------------|----------------||

B

    Gm
G  |----------------|----------------||
D  |----------------|----------------||
A  |--------5-5-5-5-|----------------||
E  |3-----3---------|3-------5---5---||

Formule 1e en 2e couplet: AA ABBA ABBA
Formule solo en einde: ABBA' ABBA

Refrein

A

    Gm               C
G  |----------------|----------------||
D  |----------------|--------5---5---||
A  |--------5-5-5-5-|3---------------||
E  |3-----3---------|----------------||

B

    F
G  |----------------|----------------||
D  |----------------|----------------||
A  |--------3-3-3-3-|--------3---3---||
E  |1-----1---------|1---------------||

C

    E                A
G  |----------------|----------------||
D  |--------9-9-9-9-|----------------||
A  |7-----7---------|--------7---7---||
E  |----------------|5---------------||

Formule refrein: AAAB AAAC