Doe Maar – Doris Day

published: by Maarten Tromp.

Dit is de bass tab voor Doris Day van Doe Maar, van het album Doris Day en Andere Stukken (1982), gespeeld door Henny Vrienten.

Muziek

Bass tab

Couplet

G || ----------------|---------------- ||
D ||*--------------9-|8---8---8---9---*||
A ||*--------7-9-a---|----------------*||
E || ------7---------|---------------- ||
a=10
G || -------6-----9--|---------------- ||
D ||*----------7-----|9---9-----------*||
A ||*------------7---|--------9---9---*||
E || ----------------|---------------- ||

Refrein

G || ----------------|---------------- ||
D ||*--999--999--9---|--777--777--7---*||
A ||*7-------------7-|5-------------5-*||
E || ----------------|---------------- ||
G  |----------------|----------------|----------------|----------------||
D  |--666--666--6---|----------------|--666--666--6---|----------------||
A  |4-------------4-|--------4---4---|4-------------4-|5-5-5-5-6---6---||
E  |----------------|2-2-2-2---------|----------------|----------------||

Brug

G || ----------------|----------------|----------------|---------------- ||
D ||*----------------|----------------|----------------|----------------*||
A ||*7---------------|9---------------|7---------------|----7---7-------*||
E || ----7---7-------|----9---9-------|----5---5-------|7--------------- ||