Doe Maar – Doe maar net alsof

published: by Maarten Tromp.

Dit is de bass tab voor Doe maar net alsof van Doe Maar, van het album 4us (1983), gespeeld door Henny Vrienten.

Muziek

Bass tab

Couplet

    D                                 G
G  |----------------|----------------|----------------|----------------||
D  |----3-2---------|---3-2----------|----------------|----------------||
A  |--5-----5-------|-5-----5--------|----2-----------|----2-----------||
E  |----------------|----------------|--3---5-3-------|--3---5-3-------||

Refrein

    F                                 G
G  |----------------|----------------|----------------|----------------|
D  |----------------|----------------|----------------|----------------|
A  |----------------|----3-0---------|----------------|---5-2----------|
E  |1-1-1---1-------|--1-----1-------|3-3-3---3-------|-3-----3--------|
    B♭               C                D                                
G  |----------------|----------------|----------------|----------------||
D  |----3-0---------|----5-2---------|----3-2---------|---3-2----------||
A  |1-1-----1-------|3-3-----3-------|--5-----5-------|-5-----5--------||
E  |----------------|----------------|----------------|----------------||

De eerste twee maten couplet vervallen na een refrein.

Brug

    A                                 G
G  |----------------|----------------|----------------|---------------- ||
D  |----------------|----------------|----------------|----------------*||
A  |------7---------|--------7-------|------5---------|----------------*||
E  |--------5-5-5-5-|------5---7-5---|3-------3-3-3-3-|--------5-6-5-6- ||
    C                                 G
G  |----------------|--------2---2---|----------------|----------------|
D  |------2---------|----------2---5-|------5---------|----------------|
A  |--------3-3-3-3-|----------------|----------------|----------------|
E  |----------------|----------------|--------3-3-3-3-|---------5-6-5-6|
    A                                 G
G  |----------------|----------------|----------------|---------------- ||
D  |----------------|----------------|----------------|5-5-5---5-------*||
A  |------7---------|----7-----------|--------5-5-5---|----------------*||
E  |--------5-5-5-5-|--5---7-5-------|3-----3---------|---------------- ||