Doe Maar – De bom

published: by Maarten Tromp.

Dit is de bass tab voor De bom van Doe Maar (1982), gespeeld door Henny Vrienten.

Muziek

Bass tab

Intro

G  |----------------|---------------- ||
D  |5-7-8-5-7-------|----------------*||
A  |------------5---|----5-5-5---5-5-*||
E  |----------------|3--------------- ||

Couplet

                     _________________
                    | 1-3             |
G  |----------------|---------------- ||
D  |----------------|----------------*||
A  |----------------|----5-5-5---5-5-*||
E  |3-5-6-3-5---1---|3--------------- ||
                     ________________
                    | 4.
                 G  |----------------|----------------|
                 D  |----------------|----3---6-------|
                 A  |--6-6-6-4---4---|4-6---4---------|
                 E  |----------------|----------------|
G  |----------------|----------------|----------------|----------------|
D  |----5-5-5-5-5-5-|----7---7-------|----------------|----------------|
A  |3---------------|5---------------|--------5-------|----------------|
E  |----------------|----------------|--3-3-3---------|3-3-3---3-------|                                  
G  |----------------|----------------||
D  |----5-5-5-5-5-5-|7---------------||
A  |3---------------|----5---5-------||
E  |----------------|----------------||

Refrein

G  |----------------|----------------|----------------|----------------|
D  |----5-----------|----5-----------|----------------|----------------|
A  |6---------------|6---------------|3---6-----------|----6-6-6---6-6-|
E  |--------6-------|--------6-------|--------6-------|4---------------|
G  |----------------|----------------|----------------||
D  |----------------|----3-----------|----------------||
A  |----1-----------|5-------3-------|----5-------3---||
E  |3-------1-------|----------------|6-------4-------||