Doe Maar – Belle Hélène

published: by Maarten Tromp.

Dit is de bass tab voor Belle Hélène van Doe Maar, van het album Doris Day en andere stukken (1982), gespeeld door Henny Vrienten.

Muziek

Bass tab

Intro

G  |----------------|----------0-3-5-||
D  |----------------|----0-2-3-------||
A  |--------------3-|1-3-------------||
E  |----------------|----------------||

Refrein

    Dm               B♭m              Em               Dm
G  |----------------|----------------|5---------------|----------------||
D  |--------7-------|----------------|----7-------7---|--------xx7---7-||
A  |5---8-------8-5-|----5---8---5-8-|--------7-----7-|5---8-------8---||
E  |----------------|6---------------|----------------|----------------||

Couplet

                                                        _________________  ________________
     G                A                Dm      Em      | 1. Dm           || 2. F           |
G || ----------------|----------------|----------------|---------------- ||----------------|
D ||*----------------|----------------|----------------|----------------*||----------------|
A ||*--2-5-2---------|--4-7-4---------|5---5---7---7---|5-5-5---5-------*||8-8-8---8-------|
E || 3-------3-------|5-------5-------|----------------|---------------- ||----------------|
     B♭      F        G
G || ----------------|---------------- ||
D ||*----0-3-----3-3-|----------------*||
A ||*1---------------|--------5-5-5---*||
E || --------1-------|3---3----------- ||
herhaal eerste balk, tweede uitgang

Slot

G  |----------------|----------------|----------0-3-5-|----------------||
D  |----------------|----------------|----0-2-3-------|----------------||
A  |5---------------|--------------3-|1-3-------------|5---------------||
E  |----------------|----------------|----------------|----------------||