Doe Maar – Alles gaat voorbij

published: by Maarten Tromp.

Dit is de bass tab voor Alles gaat voorbij van Doe Maar, van het album 4us (1983), gespeeld door Henny Vrienten.

Muziek

Bass tab

Intro

                     _________________  ________________
                    | 1-3             || 4.
G  |----------------|3--4--5-9\-------||3--4--5-3-4-5---||
D  |----------------|--------a\------*||----------------||
A  |--------1-------|----------------*||----------------||
E  |--3-1-3---3-1-3-|-----------------||----------------||
                             a=10

Couplet

                     _________________  ________________
                    | 1-2             || 3.
G  |----------------|------------3-5--||------------5-7-|
D  |----------------|----------------*||----------------|
A  |--------1-------|----------------*||----------------|
E  |--3-1-3---3-1-3-|-----------------||----------------|
G  |----------------|----------------||
D  |--------3-------|--------3-------||
A  |--5-3-5---5-3-5-|--5-3-5---5-3-5-||
E  |----------------|----------------||

Refrein

G  |----------------|---------------- || ----------------|---------------- ||
D  |3-5-5---5-------|----------------*||*----------------|----------------*||
A  |----------------|5---5-----------*||*1-3-3---3-------|5---5-----------*||
E  |--------------3-|---------------- || --------------3-|---------------- ||
                                     4x
G  |----------------|----------------|----------------|----------------||
D  |3-5-5---5-------|----------------|----------------|----------------||
A  |--------------5-|----------------|1-3-3---3-------|5---5-----------||
E  |----------------|3---3-----------|--------------3-|----------------||