De Dijk – Niemand in de stad

published: by Maarten Tromp.

Dit is de bass tab voor Niemand in de stad van De Dijk, van het gelijknamige album (1988), gespeeld door Hans van der Lubbe.

Muziek

Bass tab

Dit nummer wordt, net als meer nummers van dit album, een hele toon lager gespeeld, dus in D / G / C / F stemming.

Refrein

     D                Em               G                        A
F || ----------------|----------------|----------------|---------------- ||
C ||*----------------|----------------|----------------|----------------*||
G ||*----------------|----------------|0-0-0-0-0-0-0---|0-------2-----2-*||
D || 0-0-0-0-0-0-0-0-|2-2-2-2-2-2-2-4-|--------------0-|---------------- ||

Couplet

    Bm                                A
F  |----------------|----------------|----------------|----------------|
C  |----------------|----------------|----------------|----------------|
G  |4-4-----4---4-2-|4-4-----4---4---|2-2-----2---2---|2-2-----0-------|
D  |------4---4-----|------4---4---4-|------2---2---2-|------2---4-0-1-|
    Em               G                D                A
F  |----------------|----------------|----------------|----------------||
C  |----------------|----------------|----------------|----------------||
G  |----------------|0-0-----0---0-2-|--------------0-|2-2-2---0-------||
D  |2-2---0-2-0-2-4-|------4---4-----|0-0-0-0-4-4-4---|------2---4-2-4-||