De Dijk – Nergens goed voor

published: by Maarten Tromp.

Dit is de bass tab voor Nergens goed voor van De Dijk, van het album Nergens goed voor (1989), gespeeld door Hans van der Lubbe.

Muziek

Unfortunately there is no freely embeddable audio or video available. However you can view it on youtube.

Bass tab

Couplet

                      _________________  ________________
     D               | 1-3.            || 4.             |
G || ----------------|---------------- ||----------------||
D ||*----------------|----------------*||----------------||
A ||*5---5-------5---|----------------*||----------------||
E || ----------------|5-5-5-5-5-5-5-5- ||3-3-3-3-3-3-3-3-||
    A7
G  |----------------|----------------|----------------|---------------- ||
D  |----------------|----------------|----------------|----------------*||
A  |----------------|----------------|----------------|----------------*||
E  |5---5-------5---|0-0-0-0-0-0-0-0-|5---5-------5---|5-5-5-5-5-5-5-5- ||
    D                                 D7
G  |----------------|----------------|----------------|----------------||
D  |----------------|----------------|----------------|----------------||
A  |5---5-------5---|----------------|5---5-------5---|5-5-5-5-5-5-5-5-||
E  |----------------|5-5-5-5-5-5-5-5-|----------------|----------------||

Refrein

    G
G  |----------------|----------------|----------------|----------------|
D  |5---5-------5---|----------------|5---5-------5---|----------------|
A  |----------------|5-5-5-5-5-5-5-5-|----------------|2-2-2-2-2-2-2-2-|
E  |----------------|----------------|----------------|----------------|
    D
G  |----------------|----------------|----------------|----------------|
D  |----------------|----------------|----------------|----------------|
A  |5---5-------5---|----------------|5---5-------5---|----------------|
E  |----------------|5-5-5-5-5-5-5-5-|----------------|3-3-3-3-3-3-3-3-|
    A7
G  |----------------|----------------|----------------|----------------|
D  |----------------|----------------|----------------|----------------|
A  |----------------|----------------|----------------|----------------|
E  |5---5-------5---|0-0-0-0-0-0-0-0-|5---5-------5---|5-5-5-5-5-5-5-5-|
    D                                 D7
G  |----------------|----------------|----------------|----------------|
D  |----------------|----------------|----------------|----------------|
A  |5---5-------5---|----------------|5---5-------5---|5-5-5-5-5-5-5-5-|
E  |----------------|5-5-5-5-5-5-5-5-|----------------|----------------|
    G
G  |----------------|----------------|----------------|----------------|
D  |5---5-------5---|----------------|5---5-------5---|----------------|
A  |----------------|5-5-5-5-5-5-5-5-|----------------|2-2-2-2-2-2-2-2-|
E  |----------------|----------------|----------------|----------------|
    D                                 Bm
G  |----------------|----------------|----------------|----------------|
D  |----------------|----------------|----------------|----------------|
A  |5---5-------5---|----------------|2---2-------2---|2-2-2-2-2-2-2-2-|
E  |----------------|5-5-5-5-5-5-5-5-|----------------|----------------|
    Em                                A7
G  |----------------|----------------|----------------|----------------|
D  |----------------|----------------|----------------|----------------|
A  |----------------|----------------|----------------|----------------|
E  |0---0------0----|0-0-0-0-0-0-0-0-|5---5-------5---|5-5-5-5-5-5-5-5-|
    D                G                A7
G  |----------------|----------------|----------------|----------------||
D  |----------------|----------------|----------------|----------------||
A  |5---5------5----|----------------|----------------|----------------||
E  |----------------|----3-------5---|5---------------|----------------||