De Dijk – Mag het licht uit

published: by Maarten Tromp.

Dit is de bass tab voor Mag het licht uit van De Dijk, van het album Wakker in een vreemde wereld (1987), gespeeld door Hans van der Lubbe.

Muziek

Unfortunately there is no freely embeddable audio or video available. However you can view it on youtube.

Bass tab

Couplet / refrein

    C                Am               C                Am
G  |----------------|----------------|----------------|----------------|
D  |----------------|----------------|----------------|----------------|
A  |3-3-----3-3-----|0-0-----0-0-----|3-3-----3-3-----|0-0---0-----0-2-|
E  |------3---------|------0---------|------3---------|----------------|
    C                F                B♭               G
G  |----------------|----------------|----------------|----------------||
D  |----------------|----------------|----------------|----------------||
A  |3-3-----3-3-----|----------------|1-1-----1-1-----|----------------||
E  |------3---------|1-1---x-1-1-----|------1---------|3-3---3---------||

Brug

    F                D                G                E
G  |----------------|----------------|0-0-----0-0-----|------------0---|
D  |3-3-----3-3---2-|0-0-----0-0-3-0-|------0-------4-|2-2-----2-2---2-|
A  |------3---------|------0---------|----------------|------2---------|
E  |----------------|----------------|----------------|----------------|
    A                F                G
G  |2-2-----2-2-----|----------------|----------------|----------------|
D  |------2-------2-|3-3-----3-3-----|----------------|----------------|
A  |----------------|------3-----3---|----------------|----------------|
E  |----------------|--------------1-|3-----3-3-------|3-3-3-3-3-3-3-3-|
    G
G  |----------------|----------------||
D  |----------------|----------------||
A  |----------------|----------------||
E  |3-3-3-3-3-3-3-3-|3---------------||