De Dijk – Laaiend vuur

published by Maarten Tromp, updated

Dit is de bass tab voor Laaiend vuur van De Dijk, van het album De blauwe schuit (1995), gespeeld door Hans van der Lubbe.

Dit nummer wordt, net als meer nummers van het album, een hele toon lager gespeeld, dus in D / G / C / F stemming.

Muziek

Enable JavaScript to get the fancy player.

Play (space) Pause (space)
?
 ICCRICCRSRI

Bass tab

Intro

    D                F
F  |----------------|----------------||
C  |----------------|------5---5-----||
G  |----------------|--5-7-------7---||
D  |0-----0-0-----0-|7-------------0-||

Couplet

    D                                   G                D
F  |----------------|----------------|| ----------------|---------------- ||
C  |----------------|----------------||*----------------|----------------*||
G  |----------------|----0-2---2-----||*0-----0-0-----0-|----0-2---2-----*||
D  |0-----0-0-----0-|0-3---------3-0-|| ----------------|0-3---------3-0- ||
                     A7
F  |----------------|----------------|----------------||
C  |----------------|----------------|------0---0-----||
G  |----------------|2-----2-2-----2-|2-0-2-------2-0-||
D  |0-----0-0-----0-|----------------|----------------||

Refrein

    G                A7               D                G                 
                                      __________________________________ 
                                     | 1,3                              |
F  |----------------|----------------|----------------|---------------- ||
C  |----------------|--------1---1---|----------------|----------------*||
G  |0---------------|2-----2---2-----|----------------|0------0-0----0-*||
D  |------0-3-0-3---|----------------|0-----0-0-----0-|---------------- ||
    D                D7                D
    _________________________________  ________________
   | 2.                              || 4.
F  |----------------|----------------||----------------|----------------||
C  |----------------|----------------||----------------|----------------||
G  |----------------|----------------||--------------2-|--0-------------||
D  |0------0-0----0-|0------0-0----0-||0-----0-0-------|------0-3-0-3---||