De Dijk – Ik kan het niet alleen

published: by Maarten Tromp.

Dit is de bass tab voor Ik kan het niet alleen van De Dijk, van het album Niemand in de stad (1989), gespeeld door Hans van der Lubbe.

Muziek

Bass tab

Intro

    G                D                G                C
                                      __________________________________
                                     | 1.                               |
G  |----------------|----------------|----------------|---------------- ||
D  |5---5-5-3---5---|----------------|5---5-5-3-4-5---|----------------*||
A  |---------------5|--------------5-|---------------3|--------------3-*||
E  |----------------|----------------|----------------|---------------- ||
                                      D       C        G       A
                                      ________________
                                     | 2.
                                   G |----------------|----------------||
                                   D |----------------|----------------||
                                   A |5-----3-------2-|----------------||
                                   E |----------------|----5---5-------||

Couplet

    G                C                  D
G  |----------------|---------------- ||----------------|----------------||
D  |555-555-555-555-|---02-5-------2-*||----------------|----------------||
A  |----------------|3-3-----3---3---*||555-555-555-555-|----2-2-3-3-4-4-||
E  |----------------|---------------- ||----------------|5-5-------------||
                         h           3x

Refrein

    G                C                  D
G  |----------------|---------------- ||----------------|----------------||
D  |----------------|----------------*||----------------|----------------||
A  |----------------|----------------*||5---5-3-5-5-----|5-5-2-2-3-3-4-4-||
E  |3---3-0-3-3-----|3---3-0-3-3---0- ||----------------|----------------||
                                     3x

Brug

    D           F    D           F    D                F
G  |----------------|----------------|----------------|----------------|
D  |----------------|----------------|----------------|----------------|
A  |5---5---5-------|5---5---5-------|5---5---5---5---|----------------|
E  |------------1---|------------1---|----------------|1---1---1---1---|
    G                C                D       C        G       A
G  |----------------|----------------|----------------|----------------||
D  |----------------|----------------|----------------|----------------||
A  |----------------|----------------|5-----3-------2-|----------------||
E  |3---3-0-3-3---0-|3---3-0-3-3-----|----------------|----5---5-------||

Outro

Eerste twee maten van refrein blijven herhalen.