De Dijk – Het gevoel is weg

published by Maarten Tromp

Dit is de bass tab voor Het gevoel is weg van De Dijk, van het album Niemand in de stad (1988), gespeeld door Hans van der Lubbe.

Dit nummer wordt, net als meer nummers van het album, een hele toon lager gespeeld, dus in D / G / C / F stemming.

Muziek

Enable JavaScript to get the fancy player.

Play (key: space) Pause (key: space)
Help
ICRBCRRCRRIU

Bass tab

Intro

   Em     Bm               Em      C♯         Bm
                           _________________  ________________
                          | 1-7             || 8.
F  ----|| ----------------|---------------- ||----------------|----------------||
C  ----||*----------------|--4---1---1-----*||----------------|----------------||
G  --2-||*4-4-2---4---2---|----1---------2-*||----------------|----------------||
D  4---|| ------4-------4-|2-----------4--- ||4-4-4-4-4-----2-|---\------------||

Couplet

Bij 1e couplet de eerste twee maten stil.

    Em               F♯               Bm                               
G  |----------------|----------------|----------------|---------------- ||
D  |----------------|----------------|----------------|----------------*||
A  |----------------|------------2---|4---4-2-4-2-----|4---4-2-4-4-2---*||
E  |2---2---2-0-2-4-|--4---0-4-----4-|------------4---|--------------4- ||
                                                                        play 3x
    Em               Dm               F♯
G  |----------------|----------------|----------------|----------------|
D  |----------------|----------------|----------------|----------------|
A  |----------------|----------------|----------------|----------------|
E  |2-2-2-2-2-2-2-0-|--0---0-2---0-2-|4-4-4-4-4-----2-|3-4---4-----4---|
    Gm                                Em
G  |----------------|----------------|----------------|----------------||
D  |----------------|----------------|----------------|----------------||
A  |0-0---0-0-0---0-|0-0---0-0-0---0-|2-2---2-2-2---2-|2-2---2-2-2---2-||
E  |----------------|----------------|----------------|------------4---||

Refrein

   Bm               Em       C♯                         A
F |----------------|---------------- ||----------------|----------------|
C |----------------|--4---1---1-----*||----------------|--------1-------|
G |4-4-2---4---2---|----1---------2-*||4-4-2---4-----0-|2-2-0-2-------2-|
D |------4-------4-|2-----------4--- ||------4-----4---|------------4---|
    Bm               F♯
G  |----------------|----------------||
D  |----------------|----------------||
A  |4-4-2---4---2---|----------------||
E  |------4-------2-|4-4-4-4-4-------||

Brug

G  |--4---1---------|----------------||
D  |----------4---2-|----------------||
A  |----------------|--4-----2---4---||
E  |----------------|------4---------||

3e Couplet

    Em               F♯               Bm                               
G  |----------------|----------------|----------------|----------------|
D  |----------------|----------------|----------------|----------------|
A  |----------------|----------------|4---4-2-4-2-----|4---4-2-4-4-2---|
E  |2-------------4-|----------------|------------4---|--------------4-|
    Em               Dm      Em       F♯
G  |----------------|----------------|----------------|----------------|
D  |----------------|----------------|----------------|----------------|
A  |----------------|----------------|----------------|----------------|
E  |2---------------|0-------2-------|4-4-4-4-4-----2-|3-4---4-----4---|
     Gm                                Em
                                                        _________________  ________________
                                                       | 1.              || 2.
G || ----------------|----------------|----------------|---------------- ||----------------||
D ||*----------------|----------------|----------------|----------------*||----------------||
A ||*0-0---0-0-0---0-|0-0---0-0-0---0-|2-2---2-2-2---2-|2-2---2-2-2---2-*||2-2---2-2-2---2-||
E || ----------------|----------------|----------------|---------------- ||------------4---||

Uittro

Eerste herhaling van het intro blijven herhalen.