geekabit

lightbulb

De Dijk – Groot hart

published by Maarten Tromp

Dit is de bass tab voor Groot hart van De Dijk, van het album Elke dag een nieuwe hoed (1985), gespeeld door Hans van der Lubbe. Het nummer staat ook op de albums De Dijk Live (1990) en Voor de tover (1998).

Muziek

Enable JavaScript to get the fancy player.

Bass tab

Refrein

    C                G                F                      G
G  |----------------|----------------|----------------|----------------||
D  |----------------|----------------|----------------|----------------||
A  |3-----3---------|----------------|----------------|----------------||
E  |----------------|3-----3---------|1-----1---------|1-----3---------||

Couplet

    Am               Dm               Em               F
G  |----------------|----------------|----------------|---------------- ||
D  |----------------|----------------|----------------|----------------*||
A  |----------------|5------5--------|----------------|----------------*||
E  |5-----5---------|----------------|0------0--------|1------1-------- ||

Couplet

    Am               Dm               Em               F
G  |----------------|----------------|----------------|----------------|
D  |----------------|----------------|----------------|----------------|
A  |----------------|5---------------|----------------|----------------|
E  |5---------------|----------------|0---------------|1---------------|
    Am               Dm               Em               F        G
G  |----------------|----------------|----------------|----------------||
D  |----------------|----------------|----------------|----------------||
A  |----------------|5---------------|----------------|----------------||
E  |5---------------|----------------|0---------------|1-1--1-1-3------||

Couplet

    Am               Dm               Em               F
G  |----------------|----------------|----------------|----------------|
D  |----------------|----------------|----------------|----------------|
A  |----------------|5------5--------|----------------|----------------|
E  |5-----5---------|----------------|0------0--------|1------1-2------|
    Am               Dm               Em       F       G
G  |----------------|----------------|----------------|----------------||
D  |----------------|----------------|----------------|----------------||
A  |----------------|5------5--------|----------------|----------------||
E  |5-----5---------|----------------|0------1-1----3-|3---------------||